Sound will begin in 5 seconds

scarlett begonias**** part 3

01234567891011121314151617181920212223
E
B
G
D
A
E
B
0 1 2 3 4 5 6 7 8 9 10 11 12 13 14 15 16 17 18 19 20 21 22 23
Song Science #1: How Pros Use 6 Chords to Write Hit Songs
(/) Slide Up  (\) Slide Down  (h) Hammer On  (p) Pull Off  (b) Bend (r) Release (v) Vibrato

Stave 1:

E|-----------------------------------------------------------------------------------
B|-----------------------------------------9-----7--------7--------------------------
G|-----------8--9--8-----6--------6--8--9-----9-----8--9-----8-----6--------6--------
D|-----6--9-----------9-----7--9--------------------------------9-----7--9-----7-----
A|--7-----------------------------------------------------------------------------9--
E|-----------------------------------------------------------------------------------

Stave 2:

E|------------------------------------------------------------------------------
B|-----------10p9------9---------9----------9--7--------------------------------
G|-----8-----------11-----9--11----------9--------9--8--6-----6--------6--------
D|--9-----9-------------------------6/7--------------------9-----7--9-----7-----
A|---------------------------------------------------------------------------9--
E|------------------------------------------------------------------------------

Stave 3:

E|------------------------------7--9------7-------------9--11--12------11----------11--12--14--
B|--------------------7--9--10--------10-----9--10--12-------------14------12--14--------------
G|-----------6--8--9---------------------------------------------------------------------------
D|--6--7--9------------------------------------------------------------------------------------
A|---------------------------------------------------------------------------------------------
E|---------------------------------------------------------------------------------------------

Stave 4:

E|--12--13--14------------16--16--16-----16---------------------------------------------------------------
B|--------------------19---------------------19--19--19--19--19h21--19--19\17--17--17--17\16--16--16--16--
G|--------------------------------------------------------------------------------------------------------
D|--------------------------------------------------------------------------------------------------------
A|--------------------------------------------------------------------------------------------------------
E|--------------------------------------------------------------------------------------------------------

Stave 5:

E|------------------------------------------------------------------------------------------------------
B|--16--19p18p17p16------14--16--17p16--14--16------14--------------------------------------------------
G|-------------------16-------------------------16------14--16--13--14--16--14--13--------------13------
D|----------------------------------------------------------------------------------16--14--16------14--
A|------------------------------------------------------------------------------------------------------
E|------------------------------------------------------------------------------------------------------

Stave 6:

E|------------------------------------------------------------------------------------------
B|------------------------------------------------------------------------------------------
G|-------------------------------------------------11---------------------------------------
D|--16--13--14--16--13---------------------11--13------14--13--11--13\11--9--11------9--11--
A|----------------------14--12-----12--14----------------------------------------12---------
E|------------------------------------------------------------------------------------------

Stave 7:

E|--------------------------------------------------------------------------------------------------------
B|-------------------------------------------------------------------7---------------10--9----------------
G|--13\11--9--8--9--11--8-----8--------------------------------6--8-----8--9--8--11---------9--11---------
D|-------------------------9-----9--11------9--11-----6--7--9--------------------------------------10h11--
A|--------------------------------------11---------9------------------------------------------------------
E|--------------------------------------------------------------------------------------------------------

Stave 8:

E|---------------------------------------------11--11h12--14----------------------11--12--12--11--12------
B|------------------------------9--10--12--14-----------------12----------12--12----------------------14--
G|------13\11--9--11--8--9--11------------------------------------14--13----------------------------------
D|--11----------------------------------------------------------------------------------------------------
A|--------------------------------------------------------------------------------------------------------
E|--------------------------------------------------------------------------------------------------------

Stave 9:

E|--14--12--11--11--12--14--12--11------16-----------------------------------------------------
B|----------------------------------14------14--16--17--16--14--------------14--16--12h14--12--
G|--------------------------------------------------------------16------16---------------------
D|------------------------------------------------------------------16-------------------------
A|---------------------------------------------------------------------------------------------
E|---------------------------------------------------------------------------------------------

Stave 10:

E|----------9-------------------------------------------------------------------------------------------
B|--10--12-----12--12--10--9--9--10--12--10--9--------------9--10--9----------------9-------------------
G|----------------------------------------------11--11--11------------11--9--9--11-----11--9--8--9------
D|--------------------------------------------------------------------------------------------------11--
A|------------------------------------------------------------------------------------------------------
E|------------------------------------------------------------------------------------------------------

Stave 11:

E|----------------------------------------------------------------------------------------------------
B|----------------------------------------------------------------------------------------------------
G|------8--9--8---------8-----------6-----------------------------------------6--8-----6--------6--8--
D|--11-----------11--9-----9-----7--------7--------7--6-----6--------6--7--9--------9-----7--9--------
A|----------------------------9--------9-----7--7--------9-----7--9-----------------------------------
E|----------------------------------------------------------------------------------------------------

Stave 12:

E|---------------------------------------------------------11----------11--12--14--11--12--14p12--11--12--
B|--7--------7--9-----7--9--10--9--10--12--14--10--12--14------12-----------------------------------------
G|-----8--9--------9-----------------------------------------------14-------------------------------------
D|--------------------------------------------------------------------------------------------------------
A|--------------------------------------------------------------------------------------------------------
E|--------------------------------------------------------------------------------------------------------

Stave 13:

E|--14------11--12--14--11--12--14--11--12--14v--------
B|------14---------------------------------------------
G|-----------------------------------------------------
D|-----------------------------------------------------
A|-----------------------------------------------------
E|-----------------------------------------------------

Stave 14:

E|--
B|--
G|--
D|--
A|--
E|--

http://www.guitartabcreator.com
Guitar Tab Creator is intended to store guitar tab created through the tool. It currently does not support in-line text editing. Any text you place in here will be lost. If you need to comment on your tab, please use the "Tab Notes" section located below.