Sound will begin in 5 seconds

scarlett begonias**** part 2

01234567891011121314151617181920212223
E
B
G
D
A
E
B
0 1 2 3 4 5 6 7 8 9 10 11 12 13 14 15 16 17 18 19 20 21 22 23
Song Science #1: How Pros Use 6 Chords to Write Hit Songs
(/) Slide Up  (\) Slide Down  (h) Hammer On  (p) Pull Off  (b) Bend (r) Release (v) Vibrato

Stave 1:

E|---------------------------------------------------------------------------------------------
B|--------------------------------------------------9--10------9-----9--10--10h12p10--9h10--9--
G|--------8--------6--------8--11--9--8------9--11---------11-----9----------------------------
D|-----9--------7--------9---------------11----------------------------------------------------
A|--9--------7--------9------------------------------------------------------------------------
E|---------------------------------------------------------------------------------------------

Stave 2:

E|----------------------------------------------------------------------------------
B|---------9--10--10v--9v-----------------------------------------------------------
G|--9--11------------------11--11--9--9--9--8------8--9--11--9--8-------------8-----
D|---------------------------------------------11------------------11--9--11-----9--
A|----------------------------------------------------------------------------------
E|----------------------------------------------------------------------------------

Stave 3:

E|--------------------------------------------------9--7----------------------------------------
B|-----------------------------------------7--9--9-----------7--9-----7--------7----------------
G|--------------------------------6--8--9--------------------------9-----8--9-----8p6-----8-----
D|--6--7--6-----6--------6--7--9-------------------------------------------------------9-----9--
A|-----------9-----7--9-------------------------------------------------------------------------
E|----------------------------------------------------------------------------------------------

Stave 4:

E|--------------------------------------------------------------------------
B|--------------------------------------------------------------------------
G|--------6--------------------------6--9--8-----6--------6-----------------
D|--7--9-----------6--7-----6--7--9-----------9-----7--9-----7-----6--7--9--
A|-----------9--9--------9--------------------------------------9-----------
E|--------------------------------------------------------------------------

Stave 5:

E|--------------------------------------------------------------------------------------------
B|----------------------------------------------7--9--7h9--7h9--7--7h9--7h9--7v--------7--10--
G|----------------------------6--8-----6--8--9--------------------------------------8---------
D|--7p6-----6--7-----6--7--9--------9--------------------------------------------9------------
A|-------9--------9---------------------------------------------------------------------------
E|--------------------------------------------------------------------------------------------

Stave 6:

E|----------------------------------------------------------------------------------------
B|----------------------------------------------------------------------------------------
G|-----------9--8-----6--------6----------------------------------------------------------
D|-----6--9--------9-----7--9-----7-----6--------6----------------------------------------
A|--7--------------------------------9-----7--9-----9--7--6--7--9--9--7p6--6--------------
E|----------------------------------------------------------------------------7--5--6--7--

Stave 7:

E|-----------------------------------------------------------------------------------
B|-----------------------------------------------------------------------------------
G|---------------------------------------------7--6----------------------------------
D|------------------6-----------------6--7--9--------7--9--6--7--9p7--6--7-----6-----
A|------------7--9-----7--9--6--7--9----------------------------------------9-----7--
E|--7--9--10-------------------------------------------------------------------------

Stave 8:

E|-----------------------------------------------------------------------------------------------
B|---------------------------------------------------------------------------------5--4--5p4-----
G|--------------6--8--9--8p6h8--6--------6--------------------------------4--5--4-------------6--
D|-----6--7--9---------------------7--9-----7-----6--------------4--5--6-------------------------
A|--9------------------------------------------9-----7--8--9--7----------------------------------
E|-----------------------------------------------------------------------------------------------

Stave 9:

E|------------------------------------------------------------------------------
B|--4--5--7--9-----7--9--10--10p9--7--7--9--10--10--9--7-----7------------------
G|--------------9-----------------------------------------9-----9--8--8--9--11--
D|------------------------------------------------------------------------------
A|------------------------------------------------------------------------------
E|------------------------------------------------------------------------------

Stave 10:

E|--------------------------------------------------------------------------------------------------
B|-----------------------------------7--------------------------------------------------------------
G|--9--8--9--8----------8------8--9-----8--9--8--6--6--8--9--9--8--6--6--8--6-----------------------
D|--------------11--11-----11--------------------------------------------------9--7--9--6--7--9--6--
A|--------------------------------------------------------------------------------------------------
E|--------------------------------------------------------------------------------------------------

Stave 11:

E|--------------------
B|--------------------
G|--------------------
D|--------6-----------
A|--7--9-----7--9--9--
E|--------------------

http://www.guitartabcreator.com
Guitar Tab Creator is intended to store guitar tab created through the tool. It currently does not support in-line text editing. Any text you place in here will be lost. If you need to comment on your tab, please use the "Tab Notes" section located below.