Sound will begin in 5 seconds

scarlett begonias****

01234567891011121314151617181920212223
E
B
G
D
A
E
B
0 1 2 3 4 5 6 7 8 9 10 11 12 13 14 15 16 17 18 19 20 21 22 23
Song Science #1: How Pros Use 6 Chords to Write Hit Songs
(/) Slide Up  (\) Slide Down  (h) Hammer On  (p) Pull Off  (b) Bend (r) Release (v) Vibrato

Stave 1:

E|---------------------------------------------------------7-----
B|--10/12--9--10------9---------9--9h10p9---------------7--------
G|----------------11-----9--11-------------11--------8-----------
D|------------------------------------------------9--------------
A|---------------------------------------------------------------
E|---------------------------------------------------------------

Stave 2:

E|------------------------------------------------------------------------------------------------------
B|------------------------------------------------------------------------------------------------------
G|--16--14--13--------------13--14--16--14--13----------13----------------------------------------------
D|--------------16--14--16----------------------16--14------16--14--13------13--14--16--14--13----------
A|----------------------------------------------------------------------14----------------------14--12--
E|------------------------------------------------------------------------------------------------------

Stave 3:

E|--------------------------------------------------------------------------------------------------
B|--------------------------------------------------------------------------------------------------
G|--------------------------------------------------------------------------------------------------
D|--11--14--13--11------------------------------------------------------11--14--13------11----------
A|------------------14--12--11------11--12------11----------11--12--14--------------14------12--14--
E|------------------------------14----------14------12--14------------------------------------------

Stave 4:

E|------------------------------------------------------------------------------9--------------11--12--
B|----------------10p9--9-----7--------7--------7--10--9-----7--------7--9--10-----10--12--14----------
G|------8--9--11-----------9-----8--9--------8------------9-----8--9-----------------------------------
D|--11-------------------------------------------------------------------------------------------------
A|-----------------------------------------------------------------------------------------------------
E|-----------------------------------------------------------------------------------------------------

Stave 5:

E|--14--12--11--12------11----------11--------------------------------------------------------------
B|------------------14------12--14------12------12------12------------------10--9-------------------
G|------------------------------------------14------13------13--11------11---------11--9--8--9--11--
D|------------------------------------------------------------------14------------------------------
A|--------------------------------------------------------------------------------------------------
E|--------------------------------------------------------------------------------------------------

Stave 6:

E|-------------------------------------------------------------------------
B|----------------------------------------10-------------------------------
G|------8--------------------9--8------------------------------------------
D|--11-----9--11------9--11--------11--9------11--9---------------------9--
A|----------------11---------------------------------12--11--9--12--11-----
E|-------------------------------------------------------------------------

http://www.guitartabcreator.com
Guitar Tab Creator is intended to store guitar tab created through the tool. It currently does not support in-line text editing. Any text you place in here will be lost. If you need to comment on your tab, please use the "Tab Notes" section located below.