Sound will begin in 5 seconds

sand utica 2010 part 2

01234567891011121314151617181920212223
E
B
G
D
A
E
B
0 1 2 3 4 5 6 7 8 9 10 11 12 13 14 15 16 17 18 19 20 21 22 23
Song Science #1: How Pros Use 6 Chords to Write Hit Songs
(/) Slide Up  (\) Slide Down  (h) Hammer On  (p) Pull Off  (b) Bend (r) Release (v) Vibrato

Stave 1:

E|--10--11--12--12--10---------------------------10--8p7------7--8--7---------------10-------------
B|----------------------10--13--12--10--8-----8-----------10-----------10--8-----7------8--7\5-----
G|-----------------------------------------9----------------------------------9-----------------7--
D|-------------------------------------------------------------------------------------------------
A|-------------------------------------------------------------------------------------------------
E|-------------------------------------------------------------------------------------------------

Stave 2:

E|-----8--------5h7--5--------------------------------------------------------------------------
B|--------7-------------8--7--5-----------------------------------------------------------------
G|--9----------------------------7--5--7--9--8--7--5--7--------5--------------------------------
D|----------------------------------------------------------7-----9--7--5-----------4--5--7--5--
A|-------------------------------------------------------7-----------------7--6--7--------------
E|----------------------------------------------------------------------------------------------

Stave 3:

E|-----------------------------------------------------------------------------------
B|-----------------------------------------------------------------------------------
G|-----------------------------------------------------------------------------------
D|--------4--5--7--5-----------4--5--7--5-----------4--5--7--5-----------4--5--7--5--
A|--6--7-----------------6--7-----------------6--7-----------------6--7--------------
E|-----------------------------------------------------------------------------------

Stave 4:

E|--------------------------------------------------------------------------------5--
B|-----------------------------------------------------------------5--7-----5--8-----
G|--------------------------------5--4-----------------------5--7--------7-----------
D|--------4--5--7--5-----------7--------7--5-----------5--7--------------------------
A|--6--7-----------------5--7-----------------7--5--7--------------------------------
E|-----------------------------------------------------------------------------------

Stave 5:

E|-------------------------------8--10\12-----10--12------10----------10------------------------------
B|-----5--8--10--8-----------10-----------------------13------13--12----------10--13--12--10------10--
G|--7---------------9--7--------------------------------------------------12------------------12------
D|------------------------7---------------------------------------------------------------------------
A|----------------------------------------------------------------------------------------------------
E|----------------------------------------------------------------------------------------------------

Stave 6:

E|----------------------------------------8--10--7---------8--7---------------------------------
B|------10-----8--10--10--8-----8--9--10------------8--10--------10--------8--7--5-----5--------
G|--12------9----------------9---------------------------------------7--9-----------7-----7--7--
D|----------------------------------------------------------------------------------------------
A|----------------------------------------------------------------------------------------------
E|----------------------------------------------------------------------------------------------

Stave 7:

E|--------10----------------------------------------10--12--12/14---------------------------------
B|-------------------10--12------10---------10--12-----------------15-----------------12--13--15--
G|--7/11------9--11----------11------9--11-----------------------------14--11/12--14--------------
D|------------------------------------------------------------------------------------------------
A|------------------------------------------------------------------------------------------------
E|------------------------------------------------------------------------------------------------

Stave 8:

E|----------------------------------------12--14--14/15--12------12--------------12--14--15/17--14------
B|--12--13b15-------------------------13---------------------13------12--13--15---------------------15--
G|-------------14------12------12h14--------------------------------------------------------------------
D|-----------------14------14---------------------------------------------------------------------------
A|------------------------------------------------------------------------------------------------------
E|------------------------------------------------------------------------------------------------------

Stave 9:

E|--
B|--
G|--
D|--
A|--
E|--

http://www.guitartabcreator.com
Guitar Tab Creator is intended to store guitar tab created through the tool. It currently does not support in-line text editing. Any text you place in here will be lost. If you need to comment on your tab, please use the "Tab Notes" section located below.