Sound will begin in 5 seconds

sand utica 2010 part 1

01234567891011121314151617181920212223
E
B
G
D
A
E
B
0 1 2 3 4 5 6 7 8 9 10 11 12 13 14 15 16 17 18 19 20 21 22 23
Song Science #1: How Pros Use 6 Chords to Write Hit Songs
(/) Slide Up  (\) Slide Down  (h) Hammer On  (p) Pull Off  (b) Bend (r) Release (v) Vibrato

Stave 1:

E|---------------------------------------------------------15--15-----------------------------
B|--------8h10------------------------8h10p8--------15h17----------17------13--15------13b15--
G|--9--9--------7h9p7----------7h9p7-----------------------------------14----------14---------
D|---------------------7h10p7-----------------------------------------------------------------
A|--------------------------------------------------------------------------------------------
E|--------------------------------------------------------------------------------------------

Stave 2:

E|--------------------------------------------------------------------------------------
B|--------------------------------------------------------------------------------------
G|------14--14\12--12--14------13--12----------------------13/14v-----------------------
D|--14---------------------12----------14--13--12--10---------------------------5h7--7--
A|-----------------------------------------------------12----------------5h7p5----------
E|--------------------------------------------------------------------------------------

Stave 3:

E|----------------------------------------------------------------------------------------
B|-------8-----------------------------------------------------------------5-----5--7--8--
G|--8/9-----7--9\7--5-------------------------------5b6-----5--7--7--7--7-----7-----------
D|---------------------7p5-------5-------------5/7-------7--------------------------------
A|--------------------------6h7-----7\5--3------------------------------------------------
E|------------------------------------------5---------------------------------------------

Stave 4:

E|------------8b10---------------------8b10-----------------------------------------------------
B|-----8--10--------10--8--10-----8\5--------10--8--------8-------------------------------------
G|--9--------------------------9--------------------9--7-----9\7--9\7--5------------------------
D|------------------------------------------------------------------------7--------5--7--5h7p5--
A|---------------------------------------------------------------------------5--7---------------
E|----------------------------------------------------------------------------------------------

Stave 5:

E|---------------------------------------------------------------------------------------
B|--------------------------------------------------------7--8---------------------------
G|----------------------------------------------9--10/11--------9--11--12--11--9--10/11--
D|--9--9---------9---------9---------9--11--12-------------------------------------------
A|--------9--12-----12--9-----9--12------------------------------------------------------
E|---------------------------------------------------------------------------------------

Stave 6:

E|--------------------------------------------------------------------------------------
B|--7--8--7-----7--------10/12--10--8-----7---------7--5--------------------------------
G|-----------7-----9-------------------------9------------7--------5--7--------5--------
D|-------------------------------------9--------10-----------5--7--------6--7-----5--4--
A|--------------------------------------------------------------------------------------
E|--------------------------------------------------------------------------------------

Stave 7:

E|-------------------------------------------------------------------------------------------12--
B|-----------------------------------------------7--7--8--8--10--10--12--12--13--13--15--15------
G|-----------------5b6-----------------5h7p5-----------------------------------------------------
D|--4-----5--6--7-------7--------5--7------------------------------------------------------------
A|-----7-------------------6--7------------------------------------------------------------------
E|-----------------------------------------------------------------------------------------------

http://www.guitartabcreator.com
Guitar Tab Creator is intended to store guitar tab created through the tool. It currently does not support in-line text editing. Any text you place in here will be lost. If you need to comment on your tab, please use the "Tab Notes" section located below.