Sound will begin in 5 seconds

Samson and Delilah 0ctober 9, 1976 Oakland Colliseum Part 2

01234567891011121314151617181920212223
E
B
G
D
A
E
B
0 1 2 3 4 5 6 7 8 9 10 11 12 13 14 15 16 17 18 19 20 21 22 23
Song Science #1: How Pros Use 6 Chords to Write Hit Songs
(/) Slide Up  (\) Slide Down  (h) Hammer On  (p) Pull Off  (b) Bend (r) Release (v) Vibrato

Stave 1:

E|---------13--14--15-----------------------------------------------------------------------------
B|--13h15--------------13--15--15p13--11b13------------6-------8--6-------------------------------
G|-------------------------------------------12p10h12-----6h7--------7--6p5--3h4------------------
D|--------------------------------------------------------------------------------5--3h4-----3h5--
A|----------------------------------------------------------------------------------------5-------
E|------------------------------------------------------------------------------------------------

Stave 2:

E|------------------------------------------------------10--------------------------------
B|-----------------------------------------------11b13------13r11-------------------------
G|---------------3-----3--4--5--5p4-----5--6--7--------------------12--10b11--------------
D|-------3--4h5-----5----------------5----------------------------------------12--10--12--
A|--4h5-----------------------------------------------------------------------------------
E|----------------------------------------------------------------------------------------

Stave 3:

E|--------------------------------------------------------------------------
B|--------------------------------------------------------------------------
G|--10h11-------------------------------------------------------------------
D|---------12p11--10--8h9-----------------------8h9--10b12--8h9-------------
A|-------------------------10--------10--8--10-------------------10--9--10--
E|-----------------------------9h10-----------------------------------------

Stave 4:

E|-------------------------------------------------------------------------------------------------
B|-------------------------------------------------------------------------------------------------
G|-----------------------------------------------------------------------------------------5--3h4--
D|-------3-----3h5p3-----3-----3h4--------------------------------------3-------5-----3h5----------
A|--3/5-----5---------5-----5-------5--3--1h2--------------1h2-----4/5-----4h5-----5---------------
E|---------------------------------------------3--1--3----------3----------------------------------

Stave 5:

E|-------------------3---------------------------------------------------------------------------------
B|----------------3-----6--5--3-----3------------------------------------------------------------------
G|-----------3h4-----------------6-----3h4-----------------------------------------------------5--3h4--
D|--5--3--5---------------------------------5p3---------------------------3-------5--3--5p3h5----------
A|-----------------------------------------------5--3--1h2-----------4/5-----4h5-----------------------
E|----------------------------------------------------------3--1--3------------------------------------

Stave 6:

E|------------------------------------------------------------------------------------------------
B|--------------------------6b8--6----------------------------------------------------------------
G|----------------------------------7--5--4-----3h4-----------------------------------------------
D|--5-----3-------5p3h5----------------------5-------5--4--3-----3--------3-----------------------
A|-----5-----4h5----------------------------------------------5-----3--5-----5/4/3--1h2-----------
E|---------------------------------------------------------------------------------------3--1--3--

Stave 7:

E|-----------------------------------------------------------------------3--
B|---------------------------------------------------6b8--6--3-----3--3-----
G|---------------------------------5--3h4-----------------------5-----------
D|--------------5p3-------3--5--5----------5--3h4h5-------------------------
A|--1--2--4--5-------4h5----------------------------------------------------
E|--------------------------------------------------------------------------

Stave 8:

E|----------------------------------------15--14--13----------------------------------------------
B|--6--5--3--------3---------------13b15--------------15--14--11/12-------------------------------
G|-----------6--5-----3b4--------------------------------------------12p11--10---------12p10------
D|-------------------------5--3h5-----------------------------------------------11h12---------12--
A|------------------------------------------------------------------------------------------------
E|------------------------------------------------------------------------------------------------

Stave 9:

E|---------10---------------------------------------------------------------------------------
B|--11b13------13r11--------------------------------------------------------------------------
G|--------------------12--10------12------11--12p11------10-----------------------------------
D|----------------------------12------12-------------12------12p11--10--9/10--8h9-------------
A|---------------------------------------------------------------------------------10--8--10--
E|--------------------------------------------------------------------------------------------

Stave 10:

E|----------------------------------------------------10-------------------------------------
B|---------------------------------------------11b13------13r11--------------------------10--
G|------------------10---------12--10------10--------------------12--10----------------------
D|--8/9------10/12------11h12----------12--------------------------------12--11--10--10------
A|-------10----------------------------------------------------------------------------------
E|-------------------------------------------------------------------------------------------

Stave 11:

E|-----------------------15--12-----------------------------------------------------
B|-------8--8/10--10/12----------15------15h17---------13--10-----------------------
G|-----------------------------------14---------10/11----------11-------------------
D|--8/9------------------------------------------------------------12--10--9v-------
A|-----------------------------------------------------------------------------10v--
E|----------------------------------------------------------------------------------

Stave 12:

E|---------10-----------------------------------15--------------------------------15--------------
B|--11b13------13r11---------------------13b15------15r13--13--13b15----------15------18--17--15--
G|--------------------12--11/12--12--12-------------------------------15--16----------------------
D|------------------------------------------------------------------------------------------------
A|------------------------------------------------------------------------------------------------
E|------------------------------------------------------------------------------------------------

Stave 13:

E|---------------------------------------------------------------------10--10---------
B|--15--14--13--11/12h13p12--------------------------11b12------13b15----------13b15--
G|-------------------------------10------10--11--12---------12------------------------
D|---------------------------12------12-----------------------------------------------
A|------------------------------------------------------------------------------------
E|------------------------------------------------------------------------------------

Stave 14:

E|---------------------------------------------------15--13h15--13--10----------10---------
B|--13b14r13--11--11--------------11b12------11--12---------------------13--11------11b13--
G|--------------------12--10--12---------12------------------------------------------------
D|-----------------------------------------------------------------------------------------
A|-----------------------------------------------------------------------------------------
E|-----------------------------------------------------------------------------------------

Stave 15:

E|---------------------------------------------
B|---------------------------------------------
G|--12--10------10-----------------------------
D|----------12------12\11--10--8/9-------------
A|----------------------------------10--8--10--
E|---------------------------------------------

http://www.guitartabcreator.com
Guitar Tab Creator is intended to store guitar tab created through the tool. It currently does not support in-line text editing. Any text you place in here will be lost. If you need to comment on your tab, please use the "Tab Notes" section located below.