Sound will begin in 5 seconds

Samson and Delilah 0ctober 9, 1976 Oakland Colliseum

01234567891011121314151617181920212223
E
B
G
D
A
E
B
0 1 2 3 4 5 6 7 8 9 10 11 12 13 14 15 16 17 18 19 20 21 22 23
Song Science #1: How Pros Use 6 Chords to Write Hit Songs
(/) Slide Up  (\) Slide Down  (h) Hammer On  (p) Pull Off  (b) Bend (r) Release (v) Vibrato

Stave 1:

E|----------------------------------------------------6h7-----------------------------------
B|------------------------3-------6-----6-----8p6--8-------8--6h8p6-------------------------
G|-------------------3/4-----4/7-----7-------------------------------7--6--5--3h4-----------
D|-------3-----3--5----------------------------------------------------------------5--3--5--
A|--3/5-----5-------------------------------------------------------------------------------
E|------------------------------------------------------------------------------------------

Stave 2:

E|--5--6--7--------------------7-------5-------3---------------3--------------------
B|-----------6--7--8----------------------------------------------3-----------------
G|--------------------5--6--7-----7\5-----3/4--------7\5--3h4--------5-----3--4-----
D|----------------------------------------------------------------------5--------5--
A|----------------------------------------------------------------------------------
E|----------------------------------------------------------------------------------

Stave 3:

E|----------------------------------------------------------------------
B|----------------------------------------------------------------------
G|----------------------------------------------------------------------
D|-------------------------------------------3-------5p3-----3-----3h5--
A|--5--3--1/2-------------------1h2--3--3/5-----4h5-------5-----5-------
E|-------------3--1--3-----2h3------------------------------------------

Stave 4:

E|--------------------------------------------------------------
B|-------3------------------------------------------------------
G|--3h4-----6--5--3h4--3h4--------------------------------------
D|--------------------------5--3--------------------------------
A|--------------------------------5--4h5--4h5--3--1h2-----------
E|-----------------------------------------------------3--1--3--

Stave 5:

E|------------------------------------3-------7--------------6h7------------------------------
B|--------------------------------------------------6--7--8-------8-----6---------------------
G|-------------------------5-----3h4-----4/7-------------------------7-----7--6--5--6h7p6--5--
D|-----------------3h4--5-----5---------------------------------------------------------------
A|-------1h2--4h5-----------------------------------------------------------------------------
E|--2h3---------------------------------------------------------------------------------------

Stave 6:

E|--------------------------10------------------------------------------------------------------------
B|----------------11b13r11------13r11-----------------------------------------------------------------
G|--3h4--------------------------------12--10---------12------------------------------12------10--12--
D|-------5--3--5-------------------------------11h12------12--10--8/9--9--10--11--12------12----------
A|----------------------------------------------------------------------------------------------------
E|----------------------------------------------------------------------------------------------------

Stave 7:

E|------------10-------5------------------------------11--12--13----------13--12------10---------10--
B|--11/12b14------6h7-----7--------------------13/15--------------14--15----------13------11b13------
G|---------------------------7--6--5--4--------------------------------------------------------------
D|---------------------------------------5-----------------------------------------------------------
A|---------------------------------------------------------------------------------------------------
E|---------------------------------------------------------------------------------------------------

Stave 8:

E|-----------------------------------------------------------
B|--13r11-------------------12---------10-------8--7--10--8--
G|---------12------------------------------------------------
D|----------------10/11/12------12\10------8/9---------------
A|-----------------------------------------------------------
E|-----------------------------------------------------------

http://www.guitartabcreator.com
Guitar Tab Creator is intended to store guitar tab created through the tool. It currently does not support in-line text editing. Any text you place in here will be lost. If you need to comment on your tab, please use the "Tab Notes" section located below.