Sound will begin in 5 seconds

saint stephen barton solo 3

01234567891011121314151617181920212223
E
B
G
D
A
E
B
0 1 2 3 4 5 6 7 8 9 10 11 12 13 14 15 16 17 18 19 20 21 22 23
Song Science #1: How Pros Use 6 Chords to Write Hit Songs
(/) Slide Up  (\) Slide Down  (h) Hammer On  (p) Pull Off  (b) Bend (r) Release (v) Vibrato

Stave 1:

E|--------7------------------------------------------------------------------------------------------
B|--8b10-----10r8-----10--7-----------------------------------------------5--------------7--------5--
G|-----------------9---------9/11--11\9-----7h8---------------------4--6-----4--6-----7--------6-----
D|---------------------------------------9-------9--8--7\6-----5h6-----------------7--------7--------
A|----------------------------------------------------------7----------------------------------------
E|---------------------------------------------------------------------------------------------------

Stave 2:

E|---------------------------------------------------------------------------------------------
B|--5--5-------5--7/9\5------------7--8--9--------9--------------------------10--12p10------9--
G|--------4/6------------6--4h6p4-----------9h11-----11p9------9---------11-------------11-----
D|---------------------------------------------------------11-----11/12------------------------
A|---------------------------------------------------------------------------------------------
E|---------------------------------------------------------------------------------------------

Stave 3:

E|------------------------------------------------------------------------------12---------------
B|---------------------------9--9------9--10--12--10----------10--12p10--12\14-------------------
G|--11b13r11--9------9h11p9--------11-----------------11----------------------------11b13r11--9--
D|---------------11---------------------------------------12-------------------------------------
A|-----------------------------------------------------------------------------------------------
E|-----------------------------------------------------------------------------------------------

Stave 4:

E|-----------------------------------------------------------------------------------------------------
B|------------------------------------------------9-----------------------------------------15/17--17--
G|------9-------------------11b13--11p9h11--9h11-----11--------9---------------9-----13/14-------------
D|--11-----9h11p9--------9-------------------------------9h11-----9h11------------9--------------------
A|-----------------9h11-------------------------------------------------10h11--------------------------
E|-----------------------------------------------------------------------------------------------------

Stave 5:

E|------15h16--------------------------------------------------------------15--16------15h16------14--
B|--17---------17--15--15\14------14--15--15------14h15p14--15--16--17-------------17---------17------
G|----------------------------16--------------16------------------------------------------------------
D|----------------------------------------------------------------------------------------------------
A|----------------------------------------------------------------------------------------------------
E|----------------------------------------------------------------------------------------------------

Stave 6:

E|------14---------------------------------------------------------------------
B|--15------17--15-----14--15p14---------------------12------12----------------
G|--------------------------------16--14------12h13------13------12h13---------
D|----------------------------------------14----------------------------14-----
A|-----------------------------------------------------------------------------
E|-----------------------------------------------------------------------------

Stave 7:

E|-------------------------------------------------------------------------------------
B|-------------------------------------------------------------------------------------
G|--------9--11b13r11--9------9h11p9------9h11-----------9------9--11b13r11--9------9--
D|--9h11------------------11----------11-----------9h11-----11------------------11-----
A|-------------------------------------------------------------------------------------
E|-------------------------------------------------------------------------------------

Stave 8:

E|----------------------------------------------------------------------------------------
B|----------------------------------------------------------------------------------------
G|--9--9------9--11--11b13r11--9------9--11p9---------7-----7--9--------------9-----------
D|--------11----------------------11-----------11--------9--------11\9--9/11--------------
A|-------------------------------------------------------------------------------9/11--7--
E|----------------------------------------------------------------------------------------

http://www.guitartabcreator.com
Guitar Tab Creator is intended to store guitar tab created through the tool. It currently does not support in-line text editing. Any text you place in here will be lost. If you need to comment on your tab, please use the "Tab Notes" section located below.