Sound will begin in 5 seconds

russian_lullaby_garcia_and_grisman part 2 jerry solo

01234567891011121314151617181920212223
E
B
G
D
A
E
B
0 1 2 3 4 5 6 7 8 9 10 11 12 13 14 15 16 17 18 19 20 21 22 23
Song Science #1: How Pros Use 6 Chords to Write Hit Songs
(/) Slide Up  (\) Slide Down  (h) Hammer On  (p) Pull Off  (b) Bend (r) Release (v) Vibrato

Stave 1:

E|------------------------------8--10p9p8------13--15p13--15--15b16--13-----15p14p13------
B|---------------------8--9/10-------------12-----------------------------------------15--
G|----------5--6h7/10---------------------------------------------------------------------
D|--5--6h7--------------------------------------------------------------------------------
A|----------------------------------------------------------------------------------------
E|----------------------------------------------------------------------------------------

Stave 2:

E|---------------------------------------------------------------------------------------
B|--13------14--14--14h15--15--15--15b17r15--15-----15--13--15p13--15p13\12--12--13--13--
G|------14-------------------------------------------------------------------------------
D|---------------------------------------------------------------------------------------
A|---------------------------------------------------------------------------------------
E|---------------------------------------------------------------------------------------

Stave 3:

E|------12--13p12--15p13p12--13-------------------------------------------------------------
B|--13------------------------------13/15--13---------------------13--13/15--15--15p14--14--
G|---------------------------------------------14-------------------------------------------
D|-------------------------------------------------15--14--13-------------------------------
A|------------------------------------------------------------------------------------------
E|------------------------------------------------------------------------------------------

Stave 4:

E|--------------14----------14--15--15--14p13p12------13--12--13--15p13p12h13--13--13--
B|--13--------------13----------------------------13-----------------------------------
G|------14--------------14-------------------------------------------------------------
D|----------15-------------------------------------------------------------------------
A|-------------------------------------------------------------------------------------
E|-------------------------------------------------------------------------------------

Stave 5:

E|--12p11p10p9--9--9--9-------------------------10\9--9--9--9--------------10--------------
B|-----------------------10----------8----------------------------8--8/10------10--10p9p8--
G|---------------------------9--8/9-----8h9h10---------------------------------------------
D|-----------------------------------------------------------------------------------------
A|-----------------------------------------------------------------------------------------
E|-----------------------------------------------------------------------------------------

Stave 6:

E|-----------------------------------------------------------------------------5----------------
B|-------------8-------------------8--6p5--5---------------------5-----5h6--8-----6/8--6--------
G|--10------8-----10--8------7----------------5/6-----------5/7-----7---------------------7-----
D|------10---------------10-----8------------------7-----7-----------------------------------8--
A|----------------------------------------------------------------------------------------------
E|----------------------------------------------------------------------------------------------

Stave 7:

E|-------------------------------5--6--8/15-----13p12--12--13--15p13p12h13--13---------------10-------9--
B|----------------------5--6--8-------------------------------------------------15-----------------------
G|-------------5--6--7--------------------------------------------------------------8--8/10------8/9-----
D|--2/5--7--8--------------------------------------------------------------------------------------------
A|-------------------------------------------------------------------------------------------------------
E|-------------------------------------------------------------------------------------------------------

http://www.guitartabcreator.com
Guitar Tab Creator is intended to store guitar tab created through the tool. It currently does not support in-line text editing. Any text you place in here will be lost. If you need to comment on your tab, please use the "Tab Notes" section located below.