Sound will begin in 5 seconds

russian_lullaby_garcia_and_grisman

01234567891011121314151617181920212223
E
B
G
D
A
E
B
0 1 2 3 4 5 6 7 8 9 10 11 12 13 14 15 16 17 18 19 20 21 22 23
Song Science #1: How Pros Use 6 Chords to Write Hit Songs
(/) Slide Up  (\) Slide Down  (h) Hammer On  (p) Pull Off  (b) Bend (r) Release (v) Vibrato

Stave 1:

E|---------------------------------------------------------------------
B|---------------------------------------------------------------------
G|-------------------------2--3--5--6/7-----5--------------------------
D|---------------------------------------------7--6\5-----5h6p5--------
A|----------------3--4--5------------------------------8---------8-----
E|-----------4/5-------------------------------------------------------

Stave 2:

E|-----------------------------------------------------7/8--5--------6-----------
B|-------------------------------------------------------------6--------8--5-----
G|----------------7--6/7-----5h6--------5-------------------------7-----------5--
D|-------5--6--7------------------7--6-----5-------------------------------------
A|--7h8---------------------------------------8--5-------------------------------
E|-------------------------------------------------------------------------------

Stave 3:

E|------------5--5/6--8--7b8-----6p5------------------------------------------------
B|--6p5h6--8--------------------------8--6--6/8--8p7p6-----------6--8/10--8---------
G|------------------------------------------------------7--------------------9------
D|---------------------------------------------------------8--------------------10--
A|----------------------------------------------------------------------------------
E|----------------------------------------------------------------------------------

Stave 4:

E|---------------------------------------------------------------
B|--8-----------------------------------------------7h8p7--------
G|-----9-----------------10------------------10--9---------9/10--
D|--------10--9p8--7------------7--8--9--10----------------------
A|--------------------8------------------------------------------
E|---------------------------------------------------------------

Stave 5:

E|------------------------12-----15--13--12--------------------15h17--15--17--20--20/22--20--
B|--14--13--14p13h14--14---------------------13h14--14b16--17--------------------------------
G|-------------------------------------------------------------------------------------------
D|-------------------------------------------------------------------------------------------
A|-------------------------------------------------------------------------------------------
E|-------------------------------------------------------------------------------------------

Stave 6:

E|---------20-----------------------------------
B|--21/22------22\20--18------18/20------18/20--
G|------------------------19---------19---------
D|----------------------------------------------
A|----------------------------------------------
E|----------------------------------------------

Stave 7:

E|--------------------------------------------------------------------------------------------
B|-----------------------6-----6--6/8--6----------------------------------6--5-----5-------8--
G|--------------------5-----7-------------7-------------------------------------7-----6h7-----
D|-----------5--6--7-------------------------8--7--6--5--5--6--7-----6/7----------------------
A|--5h6h7h8-----------------------------------------------------------------------------------
E|--------------------------------------------------------------------------------------------

Stave 8:

E|------------------------------------------
B|--5---------------------------------------
G|-----6------------------------------------
D|--------7--6--5---------------------------
A|-----------------8--5-----5h7p5--8--8--7--
E|------------------------------------------

http://www.guitartabcreator.com
Guitar Tab Creator is intended to store guitar tab created through the tool. It currently does not support in-line text editing. Any text you place in here will be lost. If you need to comment on your tab, please use the "Tab Notes" section located below.