Sound will begin in 5 seconds

russian lullaby solo in Cm

01234567891011121314151617181920212223
E
B
G
D
A
E
B
0 1 2 3 4 5 6 7 8 9 10 11 12 13 14 15 16 17 18 19 20 21 22 23
Song Science #1: How Pros Use 6 Chords to Write Hit Songs
(/) Slide Up  (\) Slide Down  (h) Hammer On  (p) Pull Off  (b) Bend (r) Release (v) Vibrato

Stave 1:

E|----------------------------6--8p7p6------11--13p11--13--13b14--11-----13p12p11------
B|--------------------6--7/8------------10-----------------------------------------13--
G|----------3--4h5/8-------------------------------------------------------------------
D|--3--4h5-----------------------------------------------------------------------------
A|-------------------------------------------------------------------------------------
E|-------------------------------------------------------------------------------------

Stave 2:

E|---------------------------------------------------------------------------------------
B|--11------12--12--12h13--13--13--13b15r13--13-----13--11--13p11--13p11\10--10--11--11--
G|------12-------------------------------------------------------------------------------
D|---------------------------------------------------------------------------------------
A|---------------------------------------------------------------------------------------
E|---------------------------------------------------------------------------------------

Stave 3:

E|------10--11p10--13p11p10--11----------------------------------------------------------
B|--11---------------------------11/13--11---------------------11--11/13--13--13p12--12--
G|------------------------------------------12-------------------------------------------
D|----------------------------------------------13--12--11-------------------------------
A|---------------------------------------------------------------------------------------
E|---------------------------------------------------------------------------------------

Stave 4:

E|--------------12----------12--13--13--13p11p10------11--10--11--13p11p10h11--11--11--
B|--11--------------11----------------------------11-----------------------------------
G|------12--------------12-------------------------------------------------------------
D|----------13-------------------------------------------------------------------------
A|-------------------------------------------------------------------------------------
E|-------------------------------------------------------------------------------------

Stave 5:

E|--10p9p8p7--7--7--7-----------------------8\7--7--7--7----------8------------
B|---------------------8----------6-----------------------6--6/8-----8--8p7p6--
G|------------------------7--6/7-----6h7h8-------------------------------------
D|-----------------------------------------------------------------------------
A|-----------------------------------------------------------------------------
E|-----------------------------------------------------------------------------

Stave 6:

E|-------------------------------------------------------------------------3----------------
B|-----------6-----------------6--4p3--3---------------------3-----3h4--6-----4/6--4--------
G|--8-----6-----8--6-----5----------------3/4-----------3/5-----5---------------------5-----
D|-----8--------------8-----6------------------5-----5-----------------------------------6--
A|------------------------------------------------------------------------------------------
E|------------------------------------------------------------------------------------------

Stave 7:

E|-------------------------------3--4--6/13--11p10--10--11--13p11p10h11--11--------------8-------7--
B|----------------------3--4--6----------------------------------------------13---------------------
G|-------------3--4--5-----------------------------------------------------------6--6/8-----6/7-----
D|--0/3--5--6---------------------------------------------------------------------------------------
A|--------------------------------------------------------------------------------------------------
E|--------------------------------------------------------------------------------------------------

http://www.guitartabcreator.com
Guitar Tab Creator is intended to store guitar tab created through the tool. It currently does not support in-line text editing. Any text you place in here will be lost. If you need to comment on your tab, please use the "Tab Notes" section located below.