Sound will begin in 5 seconds

Russian lullaby mix 2 in Dm

01234567891011121314151617181920212223
E
B
G
D
A
E
B
0 1 2 3 4 5 6 7 8 9 10 11 12 13 14 15 16 17 18 19 20 21 22 23
Song Science #1: How Pros Use 6 Chords to Write Hit Songs
(/) Slide Up  (\) Slide Down  (h) Hammer On  (p) Pull Off  (b) Bend (r) Release (v) Vibrato

Stave 1:

E|-------------------------------------------------------------------------------------------------------
B|----------------------------------------13-----------------------------------------------------15--15--
G|-----------------------------12--13/14------14--13\12------12h13p12----------------12--13--14----------
D|------10--11--12-----14--15----------------------------15------------15-----14h15----------------------
A|--12---------------------------------------------------------------------------------------------------
E|-------------------------------------------------------------------------------------------------------

Stave 2:

E|-------------------------------------------------------------------------------12--13p12--
B|--13/14-------------------------------15--15p13--15--13p12--12--13--13-----13-------------
G|---------14--13/14--13\12-----------------------------------------------------------------
D|---------------------------15--12---------------------------------------------------------
A|------------------------------------------------------------------------------------------
E|------------------------------------------------------------------------------------------

Stave 3:

E|--15p14p13p12--13------------------------------------------------------------------14----------
B|-------------------13/15--13------------------13--13/15--15--15p14-----13--------------13------
G|------------------------------14-------------------------------------------14--------------14--
D|----------------------------------15--14--13-----------------------------------15--------------
A|-----------------------------------------------------------------------------------------------
E|-----------------------------------------------------------------------------------------------

Stave 4:

E|--14--15--15--15p14p13p12------13--12--13--15p13p12--13--13--13--
B|---------------------------13------------------------------------
G|-----------------------------------------------------------------
D|-----------------------------------------------------------------
A|-----------------------------------------------------------------
E|-----------------------------------------------------------------

Stave 5:

E|--15--13--15--13--12--13--12------------------------------------------------------------------
B|------------------------------14--14----------------------------------------------------------
G|--------------------------------------15------12--15--14--12------12--------------------------
D|------------------------------------------15------------------14------14--12--11--14--12--11--
A|----------------------------------------------------------------------------------------------
E|----------------------------------------------------------------------------------------------

Stave 6:

E|-----------------------------------------------------------------------------15--17--20--20/22--
B|-------------------------------------------------14--15--17--14--15--17--18---------------------
G|--------------------------------------12--13/14-------------------------------------------------
D|------11----------11--14--12--14--15------------------------------------------------------------
A|--12------12--10--------------------------------------------------------------------------------
E|------------------------------------------------------------------------------------------------

Stave 7:

E|--20------------------------------------------------------------------13------13--14/15--
B|------22\20--18------18/20------18/20-----------------------------13------15-------------
G|-----------------19---------19-------------------------12--13/14-------------------------
D|------------------------------------------12h13h14h15------------------------------------
A|-----------------------------------------------------------------------------------------
E|-----------------------------------------------------------------------------------------

Stave 8:

E|--13--------------------------------------------13p12------12---------15--12--------------------------
B|------15-----------------------------------------------15------14h15----------13----------------------
G|----------15--14--13--12--12--13--14-----13h14------------------------------------14--13--12----------
D|----------------------------------------------------------------------------------------------15--12--
A|------------------------------------------------------------------------------------------------------
E|------------------------------------------------------------------------------------------------------

http://www.guitartabcreator.com
Guitar Tab Creator is intended to store guitar tab created through the tool. It currently does not support in-line text editing. Any text you place in here will be lost. If you need to comment on your tab, please use the "Tab Notes" section located below.