Sound will begin in 5 seconds

Russian lullaby mix 1 in Dm

01234567891011121314151617181920212223
E
B
G
D
A
E
B
0 1 2 3 4 5 6 7 8 9 10 11 12 13 14 15 16 17 18 19 20 21 22 23
Song Science #1: How Pros Use 6 Chords to Write Hit Songs
(/) Slide Up  (\) Slide Down  (h) Hammer On  (p) Pull Off  (b) Bend (r) Release (v) Vibrato

Stave 1:

E|------------------------------8--10p9p8------13--15p13--15--15b16--13--15p14p13----------------------
B|---------------------8--9/10-------------12--------------------------------------15--13------14--14--
G|----------5--6h7/10----------------------------------------------------------------------14----------
D|--5--6h7---------------------------------------------------------------------------------------------
A|-----------------------------------------------------------------------------------------------------
E|-----------------------------------------------------------------------------------------------------

Stave 2:

E|-----------------------------------------15--17--20---------------------------------------------
B|--14h15--15--15b17r15--15-----15--16/17--------------18--15-------------------------------------
G|-------------------------------------------------------------17---------------------------------
D|-----------------------------------------------------------------18\17--15------15--17--18--19--
A|----------------------------------------------------------------------------17------------------
E|------------------------------------------------------------------------------------------------

Stave 3:

E|----------------------------------------------13-------------------------------------
B|--------------------------------------13--15------15---------------------------------
G|--17h19p17---------------------13/14------------------13\12--10------10--12--10--10--
D|------------19\18--17--15--15------------------------------------12------------------
A|-------------------------------------------------------------------------------------
E|-------------------------------------------------------------------------------------

Stave 4:

E|--12p11p10p9--9--9--9-----------------------10\9--9--9--9-----------10---------------------------------
B|-----------------------10----------8--------------------------8/10------10--9--8-------------8---------
G|---------------------------9--8/9-----8/10----------------------------------------10------8-----10--8--
D|--------------------------------------------------------------------------------------10---------------
A|-------------------------------------------------------------------------------------------------------
E|-------------------------------------------------------------------------------------------------------

Stave 5:

E|-----------------------------------------------13--15--17--13--------------------------------
B|---------------8---------------------------12------------------15------------11--13--14--15--
G|------7-----------9--------------------14-----------------------------11/12------------------
D|--10-----8-----------10/11---------12--------------------------------------------------------
A|----------------------------12---------------------------------------------------------------
E|---------------------------------------------------------------------------------------------

Stave 6:

E|-----------------------------------------------------------------------------------------
B|--10/11----------------------------------------------------------------------------------
G|---------12---------10--12/14--13\12--13\12--10----------------------10------13------12--
D|----------------12-------------------------------12p10h12--12p10h12------12------11------
A|-----------------------------------------------------------------------------------------
E|-----------------------------------------------------------------------------------------

http://www.guitartabcreator.com
Guitar Tab Creator is intended to store guitar tab created through the tool. It currently does not support in-line text editing. Any text you place in here will be lost. If you need to comment on your tab, please use the "Tab Notes" section located below.