Sound will begin in 5 seconds

Russian Lullaby melody in dm

01234567891011121314151617181920212223
E
B
G
D
A
E
B
0 1 2 3 4 5 6 7 8 9 10 11 12 13 14 15 16 17 18 19 20 21 22 23
Song Science #1: How Pros Use 6 Chords to Write Hit Songs
(/) Slide Up  (\) Slide Down  (h) Hammer On  (p) Pull Off  (b) Bend (r) Release (v) Vibrato

Stave 1:

E|--------------------------------------------------------------------------------------------
B|--------------------------------------------------------------------------------------------
G|-----------------------------------------------------------------7--------5-----------------
D|-----------5--7-----7--5h6p5-----5--6--7----------------------------8--5-----7--5-----5--7--
A|--5--7--8--------8------------8-----------7-----7/8--5-----5--5--------------------8--------
E|---------------------------------------------5----------------------------------------------

Stave 2:

E|------------------------------------------------------------------------------------
B|---------------------------------------------------------------------------------6--
G|---------10--7------------------------------------7/9--7----------------4--6--7-----
D|--8--10---------10--7-----10/12--10--7--8--10--6----------7--------6/7--------------
A|-----------------------8------------------------------------------------------------
E|------------------------------------------------------------------------------------

Stave 3:

E|----------------------5---------------------------------------------------------------------
B|-----5--6--8/9--6--8-----6----------------------------------------------------6-----6--6/8--
G|--7-------------------------7--5-------------------------------------------5-----7----------
D|----------------------------------7-----7/8--6--5------------------5--6h7-------------------
A|-------------------------------------8-------------------5h6h7--8---------------------------
E|--------------------------------------------------------------------------------------------

Stave 4:

E|----------------------------------------------------------
B|--6-------------------------------------------------------
G|-----7----------------------------------------------------
D|--------8--7--6--5------------5--8--7-----6/7-------------
A|-------------------------4h7-----------8-------7--7/8--5--
E|--------------------4/5-----------------------------------

http://www.guitartabcreator.com
Guitar Tab Creator is intended to store guitar tab created through the tool. It currently does not support in-line text editing. Any text you place in here will be lost. If you need to comment on your tab, please use the "Tab Notes" section located below.