Sound will begin in 5 seconds

russian lullaby mandolin grisman in cm

01234567891011121314151617181920212223
E
B
G
D
A
E
B
0 1 2 3 4 5 6 7 8 9 10 11 12 13 14 15 16 17 18 19 20 21 22 23
Song Science #1: How Pros Use 6 Chords to Write Hit Songs
(/) Slide Up  (\) Slide Down  (h) Hammer On  (p) Pull Off  (b) Bend (r) Release (v) Vibrato

Stave 1:

E|-----------------------------------------------------------------------------------------------
B|--13--13--11---------------------------------------------------13--13--13--13--11------11--13--
G|--------------12-----12--10--8-----8----------------8--10--12----------------------12----------
D|--------------------------------------10--8--10------------------------------------------------
A|-----------------------------------------------------------------------------------------------
E|-----------------------------------------------------------------------------------------------

Stave 2:

E|--------------------------------------------13--15--18---------------------------------------------
B|--12--13--15--12--13--13--13-----13--14/15--------------16--13-------------------------------------
G|----------------------------------------------------------------15---------------------------------
D|--------------------------------------------------------------------16\15--13------13--15--16--17--
A|-------------------------------------------------------------------------------15------------------
E|---------------------------------------------------------------------------------------------------

Stave 3:

E|-------------------------------------------------11---------------------------------
B|-----------------------------------------11--13------13-----------------------------
G|--15h17p15------------------------11/12------------------11\10--8------8--10--8--8--
D|------------17\16--15--13--13--------------------------------------10---------------
A|------------------------------------------------------------------------------------
E|------------------------------------------------------------------------------------

Stave 4:

E|--13p11h13p11--10h11p10--------------------------------------------------------------------
B|-------------------------12------12--------------------------------------------------------
G|-----------------------------13------13------10--13--12--10------10------------------------
D|-----------------------------------------13------------------12------12--10--9--12--10--9--
A|-------------------------------------------------------------------------------------------
E|-------------------------------------------------------------------------------------------

Stave 5:

E|-----------------------------------------------------------------------------------
B|-------------------------------------------------12--13--15--12--13--15-----15/16--
G|--------------------------------------10--10/12------------------------------------
D|------9---------9--12--10--12--13--------------------------------------------------
A|--10-----10--8---------------------------------------------------------------------
E|-----------------------------------------------------------------------------------

Stave 6:

E|---------18------18------18--20----------------11--13--15--11-------------------------------------
B|--18/20------20------20----------------------------------------13-----------9--11--12--13--9------
G|-------------------------------------------12-------------------------------------------------10--
D|---------------------------------------10-----------------------------9h10------------------------
A|--------------------------------------------------------------------------------------------------
E|--------------------------------------------------------------------------------------------------

Stave 7:

E|---------------------------------------------------------------------------------
B|---------------------------------------------------------------------------------
G|------8--10/12--11\10--11\10--8--------------------8--------------11---------10--
D|--10-----------------------------10p8h10--10p8h10-------------10----------9------
A|----------------------------------------------------------11----------10---------
E|------------------------------------------------------11-------------------------

http://www.guitartabcreator.com
Guitar Tab Creator is intended to store guitar tab created through the tool. It currently does not support in-line text editing. Any text you place in here will be lost. If you need to comment on your tab, please use the "Tab Notes" section located below.