Sound will begin in 5 seconds

russian lullaby mandolin grisman

01234567891011121314151617181920212223
E
B
G
D
A
E
B
0 1 2 3 4 5 6 7 8 9 10 11 12 13 14 15 16 17 18 19 20 21 22 23
Song Science #1: How Pros Use 6 Chords to Write Hit Songs
(/) Slide Up  (\) Slide Down  (h) Hammer On  (p) Pull Off  (b) Bend (r) Release (v) Vibrato

Stave 1:

E|---------------------------------------------------------------------------------------------------
B|--15--15--13-------------------------------------------------------15--15--15--15--13------13--15--
G|--------------14-----14--12--10-----10-----------------10--12--14----------------------14----------
D|----------------------------------------12--10--12-------------------------------------------------
A|---------------------------------------------------------------------------------------------------
E|---------------------------------------------------------------------------------------------------

Stave 2:

E|--------------------------------------------15--17--20---------------------------------------------
B|--14--15--17--14--15--15--15-----15--16/17--------------18--15-------------------------------------
G|----------------------------------------------------------------17---------------------------------
D|--------------------------------------------------------------------18\17--15------15--17--18--19--
A|-------------------------------------------------------------------------------17------------------
E|---------------------------------------------------------------------------------------------------

Stave 3:

E|-------------------------------------------------13-------------------------------------
B|-----------------------------------------13--15------15---------------------------------
G|--17h19p17------------------------13/14------------------13\12--10------10--12--10--10--
D|------------19\18--17--15--15---------------------------------------12------------------
A|----------------------------------------------------------------------------------------
E|----------------------------------------------------------------------------------------

Stave 4:

E|--15p13h15p13--12h13p12--------------------------------------------------------------------------
B|-------------------------14------14--------------------------------------------------------------
G|-----------------------------15------15------12--15--14--12------12------------------------------
D|-----------------------------------------15------------------14------14--12--11--15--14--12--11--
A|-------------------------------------------------------------------------------------------------
E|-------------------------------------------------------------------------------------------------

Stave 5:

E|---------------------------------------------------------------------------------------
B|-----------------------------------------------------14--15--17--14--15--17-----17/18--
G|--------------------------------------12--12--12/14------------------------------------
D|------11----------11--14--12--14--15---------------------------------------------------
A|--12------12--10-----------------------------------------------------------------------
E|---------------------------------------------------------------------------------------

Stave 6:

E|---------20------20------20--22v----------------13--15--17--13----------------------------------------
B|--20/22------22------22-----------------------------------------15------------11--13--14--15--11------
G|--------------------------------------------14----------------------------------------------------12--
D|----------------------------------------12-----------------------------11h12--------------------------
A|------------------------------------------------------------------------------------------------------
E|------------------------------------------------------------------------------------------------------

Stave 7:

E|--------------------------------------------------------------------------------------
B|--------------------------------------------------------------------------------------
G|------10--12/14-----13\12--13\12--10----------------------10----------13----------12--
D|--12----------------------------------12p10h12--12p10h12----------12----------11------
A|--------------------------------------------------------------------------12----------
E|--------------------------------------------------------------13----------------------

http://www.guitartabcreator.com
Guitar Tab Creator is intended to store guitar tab created through the tool. It currently does not support in-line text editing. Any text you place in here will be lost. If you need to comment on your tab, please use the "Tab Notes" section located below.