Sound will begin in 5 seconds

russian lullaby in Cm mix solo 2

01234567891011121314151617181920212223
E
B
G
D
A
E
B
0 1 2 3 4 5 6 7 8 9 10 11 12 13 14 15 16 17 18 19 20 21 22 23
Song Science #1: How Pros Use 6 Chords to Write Hit Songs
(/) Slide Up  (\) Slide Down  (h) Hammer On  (p) Pull Off  (b) Bend (r) Release (v) Vibrato

Stave 1:

E|-----------------------------------------------------------------------------------------------------
B|--------------------------------------11-----------------------------------------------------13--13--
G|---------------------------10--11/12------12--11\10------10h11p10----------------10--11--12----------
D|------8--9--10-----12--13----------------------------13------------13-----12h13----------------------
A|--10-------------------------------------------------------------------------------------------------
E|-----------------------------------------------------------------------------------------------------

Stave 2:

E|-------------------------------------------------------------------------------10--11p10--
B|--11\12----------------------------13--13p11--13--11p10--10--11--11--------11-------------
G|---------12--11/12--11\10-----------------------------------------------------------------
D|---------------------------13--10---------------------------------------------------------
A|------------------------------------------------------------------------------------------
E|------------------------------------------------------------------------------------------

Stave 3:

E|--13p12p11p10--11---------------------------------------------------------------12----------
B|-------------------11/13--11------------------11--11/13--13--13p12--11--------------11------
G|------------------------------12----------------------------------------12--------------12--
D|----------------------------------13--12--11--------------------------------13--------------
A|--------------------------------------------------------------------------------------------
E|--------------------------------------------------------------------------------------------

Stave 4:

E|--12--13--13--13p12p11p10------11--10--11--13p11p10--11--11--11--
B|---------------------------11------------------------------------
G|-----------------------------------------------------------------
D|-----------------------------------------------------------------
A|-----------------------------------------------------------------
E|-----------------------------------------------------------------

Stave 5:

E|--13--11--13--11--10--11--10--------------------------------------------------------------------
B|------------------------------12------12--------------------------------------------------------
G|----------------------------------13------13------10--13--12--10------10------------------------
D|----------------------------------------------13------------------12------12--10--9--12--10--9--
A|------------------------------------------------------------------------------------------------
E|------------------------------------------------------------------------------------------------

Stave 6:

E|--------------------------------------------------------------------------13--15--18--18/20--
B|----------------------------------------------12--13--15--12--13--15--16---------------------
G|-----------------------------------10--11/12-------------------------------------------------
D|------9---------9--12--10--12--13------------------------------------------------------------
A|--10-----10--8-------------------------------------------------------------------------------
E|---------------------------------------------------------------------------------------------

Stave 7:

E|--18---------------------------------------------------------------------11------11--12/13--
B|------20\18--16------16/18------16/18--------------------------------11------13-------------
G|-----------------17---------17----------------------------10--11/12-------------------------
D|---------------------------------------------10h11h12h13------------------------------------
A|--------------------------------------------------------------------------------------------
E|--------------------------------------------------------------------------------------------

Stave 8:

E|--11--------------------------------------------11p10------10---------13--10--------------------------
B|------13-----------------------------------------------13------12h13----------11----------------------
G|----------13--12--11--10--10--11--12-----11h12------------------------------------12--11--10----------
D|----------------------------------------------------------------------------------------------13--10--
A|------------------------------------------------------------------------------------------------------
E|------------------------------------------------------------------------------------------------------

http://www.guitartabcreator.com
Guitar Tab Creator is intended to store guitar tab created through the tool. It currently does not support in-line text editing. Any text you place in here will be lost. If you need to comment on your tab, please use the "Tab Notes" section located below.