Sound will begin in 5 seconds

russian lullaby in Cm mix solo

01234567891011121314151617181920212223
E
B
G
D
A
E
B
0 1 2 3 4 5 6 7 8 9 10 11 12 13 14 15 16 17 18 19 20 21 22 23
Song Science #1: How Pros Use 6 Chords to Write Hit Songs
(/) Slide Up  (\) Slide Down  (h) Hammer On  (p) Pull Off  (b) Bend (r) Release (v) Vibrato

Stave 1:

E|----------------------------6--8p7p6------11--13p11--13--13b14--11-----13p12p11----------------------
B|--------------------6--7/8------------10-----------------------------------------13--11------12--12--
G|----------3--4h5/8-----------------------------------------------------------------------12----------
D|--3--4h5---------------------------------------------------------------------------------------------
A|-----------------------------------------------------------------------------------------------------
E|-----------------------------------------------------------------------------------------------------

Stave 2:

E|-----------------------------------------13--15--18---------------------------------------------
B|--12h13--13--13b15r13--13-----13--14/15--------------16--13-------------------------------------
G|-------------------------------------------------------------15---------------------------------
D|-----------------------------------------------------------------16\15--13------13--15--16--17--
A|----------------------------------------------------------------------------15------------------
E|------------------------------------------------------------------------------------------------

Stave 3:

E|--
B|--
G|--
D|--
A|--
E|--

Stave 4:

E|----------------------------------------------11---------------------------------
B|--------------------------------------11--13------13-----------------------------
G|--15h17p15---------------------11/12------------------11\10--8------8--10--8--8--
D|------------17\16--15--13--13-----------------------------------10---------------
A|---------------------------------------------------------------------------------
E|---------------------------------------------------------------------------------

Stave 5:

E|--10p9p8p7--7--7--7---------------------8\7--7--7--7----------8--------------------------------------
B|---------------------8----------6------------------------6/8-----8--7--6--4--------6-----------------
G|------------------------7--6/7-----6/8------------------------------------------6-----8--6-----5-----
D|-----------------------------------------------------------------------------8--------------8-----6--
A|-----------------------------------------------------------------------------------------------------
E|-----------------------------------------------------------------------------------------------------

Stave 6:

E|--------------------------------11--13--15--11---------------------------------------
B|--6-------------------------10------------------13-----------9--11--12--13--8/9------
G|-----7------------------12-----------------------------9/10----------------------10--
D|--------8/9---------10---------------------------------------------------------------
A|-------------10----------------------------------------------------------------------
E|-------------------------------------------------------------------------------------

Stave 7:

E|---------------------------------------------------------------------
B|---------------------------------------------------------------------
G|------8--10/12--11\10--11\10--8--------------------8------11-----10--
D|--10-----------------------------10p8h10--10p8h10-----10------9------
A|---------------------------------------------------------------------
E|---------------------------------------------------------------------

http://www.guitartabcreator.com
Guitar Tab Creator is intended to store guitar tab created through the tool. It currently does not support in-line text editing. Any text you place in here will be lost. If you need to comment on your tab, please use the "Tab Notes" section located below.