Sound will begin in 5 seconds

russian lullaby in Cm

01234567891011121314151617181920212223
E
B
G
D
A
E
B
0 1 2 3 4 5 6 7 8 9 10 11 12 13 14 15 16 17 18 19 20 21 22 23
Song Science #1: How Pros Use 6 Chords to Write Hit Songs
(/) Slide Up  (\) Slide Down  (h) Hammer On  (p) Pull Off  (b) Bend (r) Release (v) Vibrato

Stave 1:

E|----------------------------------------------------------------------------------
B|----------------------------------------------------------------------------------
G|---------------------------------3----------------------------------------5--4/5--
D|-------------------------3--4/5-----5--4\3-----3h4p3-------------3--4--5----------
A|-------1--2--3-----5--6---------------------6---------6-----5h6-------------------
E|--2/3-----------------------------------------------------------------------------

Stave 2:

E|----------------------------5/6--3--------4---------------------3--4/5--6--5b6--
B|------------------------------------4--------6--3-----4p3h4--6------------------
G|--3h4--------3-------------------------5-----------3----------------------------
D|-------5--4-----3---------------------------------------------------------------
A|-------------------6--3---------------------------------------------------------
E|--------------------------------------------------------------------------------

Stave 3:

E|--4p3---------------------------------------------------------------------------------------
B|-------6--4--6p5p4--------4--6/8--6--------6----------------------------------------6-------
G|--------------------5----------------7--------7----------------8--------------8--7-----7/8--
D|-----------------------6----------------8--------8--7p6--5--------5--6--7--8----------------
A|------------------------------------------------------------6-------------------------------
E|--------------------------------------------------------------------------------------------

Stave 4:

E|--------------------10--13--11--10--------------------13h15--13--15--18--18/20--18---------18---------
B|--12--11--12p11h12------------------11h12--12/14--15--------------------------------19/20------20\18--
G|------------------------------------------------------------------------------------------------------
D|------------------------------------------------------------------------------------------------------
A|------------------------------------------------------------------------------------------------------
E|------------------------------------------------------------------------------------------------------

Stave 5:

E|----------------------------
B|--16------16/18------16/18--
G|------17---------17---------
D|----------------------------
A|----------------------------
E|----------------------------

Stave 6:

E|--------------------------------------------------------------------------------------------
B|-----------------------4-----4--4/6--4----------------------------------4--3-----3-------6--
G|--------------------3-----5-------------5-------------------------------------5-----4h5-----
D|-----------3--4--5-------------------------6--5--4--3--3--4--5-----4/5----------------------
A|--3h4h5h6-----------------------------------------------------------------------------------
E|--------------------------------------------------------------------------------------------

Stave 7:

E|---------------------------------------
B|--3------------------------------------
G|-----4---------------------------------
D|--------5--4--3------------------------
A|-----------------6--3-----3h5p3--6--5--
E|---------------------------------------

http://www.guitartabcreator.com
Guitar Tab Creator is intended to store guitar tab created through the tool. It currently does not support in-line text editing. Any text you place in here will be lost. If you need to comment on your tab, please use the "Tab Notes" section located below.