Sound will begin in 5 seconds

row jimmy winterland march 20 77

01234567891011121314151617181920212223
E
B
G
D
A
E
B
0 1 2 3 4 5 6 7 8 9 10 11 12 13 14 15 16 17 18 19 20 21 22 23
Song Science #1: How Pros Use 6 Chords to Write Hit Songs
(/) Slide Up  (\) Slide Down  (h) Hammer On  (p) Pull Off  (b) Bend (r) Release (v) Vibrato

Stave 1:

E|--------------------------------------------------------------------------------------
B|--14--14--15--17--14--14--15--15--14--15--14------14------------------14--------------
G|----------------------------------------------16------16--14------16------16--14------
D|--------------------------------------------------------------16------------------14--
A|--------------------------------------------------------------------------------------
E|--------------------------------------------------------------------------------------

Stave 2:

E|---------------------------------------------------------------------------------------------
B|--14----------------------------------------12h14--12------------------------------------14--
G|------16------14v----------12p11--12b13----------------14p13--14--16--14-----14--16--16------
D|----------16-------12--12--------------------------------------------------------------------
A|---------------------------------------------------------------------------------------------
E|---------------------------------------------------------------------------------------------

Stave 3:

E|---------------------------------------------------------------------------------------------
B|-----------------------------------------------------------------------------14----------14--
G|--16------14--16--------------16--18p16--------------14----------14--14--16------------------
D|------16----------16--18--19-------------19--16--16------------------------------14--16------
A|---------------------------------------------------------16----------------------------------
E|-------------------------------------------------------------17------------------------------

Stave 4:

E|----------------------------------------------------------------------------------------------------
B|------------------------------------------------------------------------14----------12------10------
G|--16--14------14------------------------------------------------------------------------------------
D|----------16--------------17--16--------14--14------12--11------14--14------14--12------11------11--
A|------------------16--17------------------------14----------12--------------------------------------
E|----------------------------------------------------------------------------------------------------

Stave 5:

E|------------------------------------------------------7-----------------------------------
B|-----7-----------------5/7-----5-----7--9--10--7--10-----7--------------------------------
G|--------------------7-------------6-------------------------7-----------6--------4--7-----
D|--7-----7--7--5--9---------------------------------------------9--7--9-----7--5--------5--
A|------------------------------------------------------------------------------------------
E|------------------------------------------------------------------------------------------

Stave 6:

E|---------------------------------------------12--11--10---------12--12b14r12--12--14--12--12--
B|-----7-------12--10----------------------10-----------------10--------------------------------
G|---------------------11--------------11------------------9------------------------------------
D|--7-----7/9--------------12--11--12-----------------------------------------------------------
A|----------------------------------------------------------------------------------------------
E|----------------------------------------------------------------------------------------------

Stave 7:

E|--14--12--12-------------------------------------------------------------------------------------
B|--------------15--15--14--15--15--17-----------------------------19--17--------------------------
G|------------------------------------------18----------16/18--16----------19--18--16--14--14--16--
D|--------------------------------------19----------19---------------------------------------------
A|----------------------------------------------19-------------------------------------------------
E|-------------------------------------------------------------------------------------------------

Stave 8:

E|-----------------------------------------------------------------------------
B|--15---------------------14------14----------------------14------------------
G|------14---------14--16------16------16--14------14--16------16--14--14--14--
D|----------16---------------------------------16------------------------------
A|-----------------------------------------------------------------------------
E|-----------------------------------------------------------------------------

Stave 9:

E|--17--17--19p18p17p16--17--19--17--16--17----------------------------------17--15--14----------
B|-------------------------------------------17------------------17------17--------------15------
G|-----------------------------------------------19--19--16----------------------------------14--
D|-----------------------------------------------------------17------17--------------------------
A|-----------------------------------------------------------------------------------------------
E|-----------------------------------------------------------------------------------------------

Stave 10:

E|--------------12---------------------9----------------------9-----------------------
B|--15--14--15------13b12--12--10--12-----12--10------10--12-----12--10---------------
G|------------------------------------------------11---------------------11--11r9--7--
D|------------------------------------------------------------------------------------
A|------------------------------------------------------------------------------------
E|------------------------------------------------------------------------------------

Stave 11:

E|-----------------------------------------------------------------------9--10--9--
B|--12p11p10-----------------12--10----------------------12--10------10------------
G|------------11------12p11----------11------11------11----------------------------
D|----------------12---------------------12------12--------------12----------------
A|---------------------------------------------------------------------------------
E|---------------------------------------------------------------------------------

Stave 12:

E|--9--10--12--12--12--12--12--12--12--12--14--12------------------------------------------
B|-------------------------------------------------15--15--15--15--15--15--15--17--15--14--
G|-----------------------------------------------------------------------------------------
D|-----------------------------------------------------------------------------------------
A|-----------------------------------------------------------------------------------------
E|-----------------------------------------------------------------------------------------

Stave 13:

E|-----------------------------------------------------------------------------------------------
B|--14--12------12--12v--12--12--14--12--10------14--12--10------14--12------12--14--12----------
G|----------14-------------------------------11--------------11----------14--------------14--14--
D|-----------------------------------------------------------------------------------------------
A|-----------------------------------------------------------------------------------------------
E|-----------------------------------------------------------------------------------------------

Stave 14:

E|--------------17--16--------------------------------------------------14------14------14------14--
B|--12--14--15----------17--19------17--19--------------------------15------15------15------15------
G|------------------------------19----------19--18--19--18--16--------------------------------------
D|--------------------------------------------------------------17----------------------------------
A|--------------------------------------------------------------------------------------------------
E|--------------------------------------------------------------------------------------------------

Stave 15:

E|------14--12--12--12p10------10--10--10--10\9------9--9--9--9\7-----7--7--7--5-----
B|--15---------------------12--------------------10----------------8--------------7--
G|-----------------------------------------------------------------------------------
D|-----------------------------------------------------------------------------------
A|-----------------------------------------------------------------------------------
E|-----------------------------------------------------------------------------------

Stave 16:

E|----------5----------------------------------------------------5-------5-------9--7--
B|-------7-----7--5-------2-----------------------5--7--------5------------------------
G|------------------------------------------6--6-----------6--------2/6-----7/9--------
D|--6/7--------------2/3--------------------------------7------------------------------
A|---------------------------------0--2--5---------------------------------------------
E|-------------------------------------------------------------------------------------

Stave 17:

E|--7--------7--9--10--9--10--14p12--12---------------------------------------------------------------
B|-----8---------------------------------13b15r13----------14\12--12--12p10h12--12b14r12--10--10--12--
G|--------7----------------------------------------14-------------------------------------------------
D|-----------------------------------------------------14---------------------------------------------
A|----------------------------------------------------------------------------------------------------
E|----------------------------------------------------------------------------------------------------

Stave 18:

E|--------------------
B|--10--12b14r12--10--
G|--------------------
D|--------------------
A|--------------------
E|--------------------

http://www.guitartabcreator.com
Guitar Tab Creator is intended to store guitar tab created through the tool. It currently does not support in-line text editing. Any text you place in here will be lost. If you need to comment on your tab, please use the "Tab Notes" section located below.