Sound will begin in 5 seconds

revised china 6/26/74

01234567891011121314151617181920212223
E
B
G
D
A
E
B
0 1 2 3 4 5 6 7 8 9 10 11 12 13 14 15 16 17 18 19 20 21 22 23
Song Science #1: How Pros Use 6 Chords to Write Hit Songs
(/) Slide Up  (\) Slide Down  (h) Hammer On  (p) Pull Off  (b) Bend (r) Release (v) Vibrato

Stave 1:

E|----------------------------------------------------------------------------------
B|----------------------------------------------------------15----------------------
G|----------------------------------------------14--16--17------17--16--------------
D|----------------------15------15------15--17--------------------------17--16--15--
A|------14--15--16--17------17------17----------------------------------------------
E|--15------------------------------------------------------------------------------

Stave 2:

E|--------------------------------------------------------------------------------------------------
B|------------------------------15--15-----15----------17-----17p15------15----------15--17--18/20--
G|------------------14--16--17-----------------17--16----------------17------16--17-----------------
D|--15------15--17----------------------------------------------------------------------------------
A|------17------------------------------------------------------------------------------------------
E|--------------------------------------------------------------------------------------------------

Stave 3:

E|----------------------------------------------------------------------------------------------------
B|------------17---------------------18--20p19p18------18p17----------17----------17------------------
G|--19p17h19------19--17--16-----------------------19---------19--17------17--19------19--17--16------
D|----------------------------18/19---------------------------------------------------------------19--
A|----------------------------------------------------------------------------------------------------
E|----------------------------------------------------------------------------------------------------

Stave 4:

E|-----------------------------------------------------------------------------------------------
B|--------------------------------10--12p10--------------10--------------------------------------
G|--16---------------------------------------12--10--12------10--9h10p9------9-------------------
D|------17--19--15---------17--------------------------------------------12-----12--9--10--9--9--
A|------------------16h17------------------------------------------------------------------------
E|-----------------------------------------------------------------------------------------------

Stave 5:

E|-------------------------------------------------------------------------------------------------
B|-------------------------------------------------------------------------------7--8p7------------
G|---------------------10------------------9--10------------------------------7----------9--7------
D|--10----------9--12------------------10---------12p10h12-----10----------9-------------------10--
A|------10--10-------------8--8-----8------------------------------10--10--------------------------
E|-------------------------------------------------------------------------------------------------

Stave 6:

E|-------------------------------------------------------------------------------------------------------
B|---------------8--8--8---------------------------7--7--------------------------------------------------
G|----------------------------------------7--7--9--------7--7-----------5--4--------4--------4--------2--
D|------8h9-------------------------7--9--------------------------5--7--------5--5-----5--7-----3--5-----
A|--10-------10--------------8--10-----------------------------------------------------------------------
E|-------------------------------------------------------------------------------------------------------

Stave 7:

E|--------------------------------------3--5p4p3-----3-------------------------------------------------
B|-----------------------------3--5--6------------6-----3--6--3--5-----3--------3----------------------
G|--------2-----------2--4--5---------------------------------------5-----4--5-----5p4-----4--4-----2--
D|--3--5-----------5--------------------------------------------------------------------5--------5-----
A|-----------5-----------------------------------------------------------------------------------------
E|-----------------------------------------------------------------------------------------------------

Stave 8:

E|---------------------------------------------------------------------------------------------
B|---------------------------------------------------------------------------------------------
G|---------------------------------------------------------------------------------------------
D|--7--10--9--7------9---------7----------7h9p7-----7--10p9--------9p7-----7---------7--9--10--
A|---------------10-----8--10--------------------------------8h10-------------8--10------------
E|--------------------------------10--10-------------------------------------------------------

Stave 9:

E|-----------------------------------------------------------10--7--------
B|-----------------------------------------8--10p8--8---------------8-----
G|--7--10--9--8--7------7--------7--9--10--------------9h10------------7--
D|------------------10-----9h10-------------------------------------------
A|------------------------------------------------------------------------
E|------------------------------------------------------------------------

http://www.guitartabcreator.com
Guitar Tab Creator is intended to store guitar tab created through the tool. It currently does not support in-line text editing. Any text you place in here will be lost. If you need to comment on your tab, please use the "Tab Notes" section located below.