Sound will begin in 5 seconds

rebel rouser bill frisell solo

01234567891011121314151617181920212223
E
B
G
D
A
E
B
0 1 2 3 4 5 6 7 8 9 10 11 12 13 14 15 16 17 18 19 20 21 22 23
Song Science #1: How Pros Use 6 Chords to Write Hit Songs
(/) Slide Up  (\) Slide Down  (h) Hammer On  (p) Pull Off  (b) Bend (r) Release (v) Vibrato

Stave 1:

E|-------------------------------------------------------------------------------
B|---------15-----14------12-----------------------------------------------------
G|--14/16-------------14------12b13----------------------------------------------
D|-----------------------------------14p12------14--12---------------------------
A|------------------------------------------14----------13\12--12--10------------
E|---------------------------------------------------------------------12p10h12--

Stave 2:

E|----------------------------------------------------------------7----------------------------
B|-------------------------------------------------5-----7--8--9--------------12--14------12v--
G|-----------------------------------------1----------------------------9/13----------13-------
D|--------------------------------------2-----4/6-----7----------------------------------------
A|-----------------------------------2---------------------------------------------------------
E|--12p10h12p10h12p10h12p10h12--2b0------------------------------------------------------------

Stave 3:

E|--------------------------------------0------------------------------------------12--
B|---------12------10-----9-----------------------------------------------5------------
G|--12h13------11------9-----------0h1-----4/6--4----------------------4-----9/13------
D|-------------------------------------------------6--4--2-----2--4/6------------------
A|-------------------------------------------------------------------------------------
E|-------------------------------------------------------------------------------------

Stave 4:

E|---------12-------------12--12------14b16--12--12-----12----------------------------------------
B|-------------14-----------------12----------------------------12/14------12/14------14------14--
G|--12/13----------12/13--------------------------------------------------------------------------
D|----------------------------------------------------------12---------12---------14------14------
A|------------------------------------------------------------------------------------------------
E|------------------------------------------------------------------------------------------------

Stave 5:

E|------12------------------------------------------------------------------------------------
B|--11------14p12--------------------14------12-----------------------------------------------
G|-----------------14--12h13-----13------13------13\11--11p9------9---------------------------
D|------------------------------------------------------------11-----11--9--------------------
A|--------------------------------------------------------------------------11\9--7--9/10--7--
E|--------------------------------------------------------------------------------------------

Stave 6:

E|-----------------------------7---------------------------------------------------------------
B|--------------------------7---------------12--14--12-----------------------------------------
G|-----------9-----7--8--9-----------12h13--------------11b13--9-------------------------------
D|----------------------------------------------------------------11--9---------------------9--
A|--7--9/11--------------------------------------------------------------11--9--7--7--9/11-----
E|---------------------------------------------------------------------------------------------

Stave 7:

E|--
B|--
G|--
D|--
A|--
E|--

http://www.guitartabcreator.com
Guitar Tab Creator is intended to store guitar tab created through the tool. It currently does not support in-line text editing. Any text you place in here will be lost. If you need to comment on your tab, please use the "Tab Notes" section located below.