Sound will begin in 5 seconds

ramble on rose solo 11 11 73

01234567891011121314151617181920212223
E
B
G
D
A
E
B
0 1 2 3 4 5 6 7 8 9 10 11 12 13 14 15 16 17 18 19 20 21 22 23
Song Science #1: How Pros Use 6 Chords to Write Hit Songs
(/) Slide Up  (\) Slide Down  (h) Hammer On  (p) Pull Off  (b) Bend (r) Release (v) Vibrato

Stave 1:

E|---------12b14r12--10------10--10----------------------------12--14--15b17p15--12--12--
B|-----------------------12----------12b14r12--10----------------------------------------
G|--10/11------------------------------------------11--12--13----------------------------
D|---------------------------------------------------------------------------------------
A|---------------------------------------------------------------------------------------
E|---------------------------------------------------------------------------------------

Stave 2:

E|------------------------------------------------------------------------------------------------
B|-------------17--18--19-----17b19r17--15------15--15--------------------------------------------
G|--13--------------------------------------16----------16--14--14--16b18r16--14--16--16------14--
D|------15/16-----------------------------------------------------------------------------16------
A|------------------------------------------------------------------------------------------------
E|------------------------------------------------------------------------------------------------

Stave 3:

E|---------------------------------------------------------------10--------------10--12--12b14r12--
B|---------------------10--10--8-----8\7-------------10--------------10--11--12--------------------
G|--9h11--9--9--------------------9-------9--11--11------10--11------------------------------------
D|--------------10h11------------------------------------------------------------------------------
A|-------------------------------------------------------------------------------------------------
E|-------------------------------------------------------------------------------------------------

Stave 4:

E|--12--12--12--12--11--10---------10--12b14--12b14--14r12--10------15--14--12------
B|-----------------------------12-------------------------------12--------------15--
G|----------------------------------------------------------------------------------
D|----------------------------------------------------------------------------------
A|----------------------------------------------------------------------------------
E|----------------------------------------------------------------------------------

Stave 5:

E|------------------------------------10---------12---------------------
B|----------17b19r17--15------------------12b14------14r12--10--12--10--
G|--14--16----------------12--13--14------------------------------------
D|----------------------------------------------------------------------
A|----------------------------------------------------------------------
E|----------------------------------------------------------------------

http://www.guitartabcreator.com
Guitar Tab Creator is intended to store guitar tab created through the tool. It currently does not support in-line text editing. Any text you place in here will be lost. If you need to comment on your tab, please use the "Tab Notes" section located below.