Sound will begin in 5 seconds

playin in the band 4 5 82 part 2

01234567891011121314151617181920212223
E
B
G
D
A
E
B
0 1 2 3 4 5 6 7 8 9 10 11 12 13 14 15 16 17 18 19 20 21 22 23
Song Science #1: How Pros Use 6 Chords to Write Hit Songs
(/) Slide Up  (\) Slide Down  (h) Hammer On  (p) Pull Off  (b) Bend (r) Release (v) Vibrato

Stave 1:

E|--------------------------------------------------------------------------------------------
B|----------------------------------------------------------------------------------------8v--
G|--------------------------------------------------------------------------------------------
D|-----7-----4--7--------5--------------5--7----------------------------------------5--7------
A|--5-----7--------7--7-----8-----7--8--------8--7--5--8--7--5--3--5/7--------5--7------------
E|--------------------------------------------------------------------------------------------

Stave 2:

E|--------------------------------------------------------------------------------------------
B|--11--10h11p10------------10----------------------------------------------------------------
G|----------------12p11h12------12--11--10-----12--11--10------------10--12p10------------10--
D|---------------------------------------------------------12p11h12-------------12p11h12------
A|--------------------------------------------------------------------------------------------
E|--------------------------------------------------------------------------------------------

Stave 3:

E|------------------------------------------------------------------------------------------------------
B|----------------------------------------------13--12-------------12-----------------------------------
G|------------------------------------------------------14--14---------14--13--12--14--13p12------------
D|--12p11p10--12--11--10---------12/14--12--12------------------------------------------------14p13h14--
A|------------------------12----------------------------------------------------------------------------
E|------------------------------------------------------------------------------------------------------

Stave 4:

E|-------------------------------------------------------------------------------------------------
B|-------------------------------------------15v-----15--13----------------12h13p12------------12--
G|--12-------------------------------------------------------14--14p13h14------------14p13h14------
D|------14p12-----12--14--13--12-------------------------------------------------------------------
A|--------------------------------14--12-----------------------------------------------------------
E|-------------------------------------------------------------------------------------------------

Stave 5:

E|--------------------------------------------------------------------------------------------------------
B|--------------------------------------------------------------------------------------------------------
G|--14p13p12--14--13--12------------12h14p12------------12------------------------------------------------
D|------------------------14p12h14------------14p12h14------14p12-----14--12----------12------12--13--14--
A|----------------------------------------------------------------------------14--15------15--------------
E|--------------------------------------------------------------------------------------------------------

Stave 6:

E|-------------------------------------------------------------------13--12h13p12--------------12--13--
B|--------------13--12--------------12--14/15--15/17--15--15-----------------------15--13--15----------
G|--12--13--14----------14--13--14----------------------------16---------------------------------------
D|-----------------------------------------------------------------------------------------------------
A|-----------------------------------------------------------------------------------------------------
E|-----------------------------------------------------------------------------------------------------

Stave 7:

E|--15/17--13--12--------------12h13p12-------------12--------------------------------------------
B|-----------------15--14--15------------15p13--15------15p14p13--15--14--13------------13h15p13--
G|----------------------------------------------------------------------------14p13h14------------
D|------------------------------------------------------------------------------------------------
A|------------------------------------------------------------------------------------------------
E|------------------------------------------------------------------------------------------------

Stave 8:

E|-----------------------
B|------------15/17--15--
G|--14p13h14-------------
D|-----------------------
A|-----------------------
E|-----------------------

http://www.guitartabcreator.com
Guitar Tab Creator is intended to store guitar tab created through the tool. It currently does not support in-line text editing. Any text you place in here will be lost. If you need to comment on your tab, please use the "Tab Notes" section located below.