Sound will begin in 5 seconds

playin in the band 4 5 82

01234567891011121314151617181920212223
E
B
G
D
A
E
B
0 1 2 3 4 5 6 7 8 9 10 11 12 13 14 15 16 17 18 19 20 21 22 23
Song Science #1: How Pros Use 6 Chords to Write Hit Songs
(/) Slide Up  (\) Slide Down  (h) Hammer On  (p) Pull Off  (b) Bend (r) Release (v) Vibrato

Stave 1:

E|--------------------------------------------------------------------------------
B|--------5--6--5--------------6--5-----------------------------------------------
G|-----7-----------7--5--7--7--------7--5--4--4--4--7--5-----4--------------4-----
D|--7-----------------------------------------------------------7--7--7--5-----7--
A|--------------------------------------------------------------------------------
E|--------------------------------------------------------------------------------

Stave 2:

E|---------------------------5--8--7--------5--------5--------------------5--------------------------
B|--------5--5h6p5-----5--6--------------8-----6--8-----6--8-----------6-----8--6--5-----5-----------
G|--5--7------------7-----------------------------------------7--7--------------------7-----7--5--7--
D|---------------------------------------------------------------------------------------------------
A|---------------------------------------------------------------------------------------------------
E|---------------------------------------------------------------------------------------------------

Stave 3:

E|--------------13--12--12-----17--15-----15--15--13p12--------------12----------------------12--13--
B|--10--10--10-------------------------------------------15--13--15------15--13--12--13--15----------
G|---------------------------------------------------------------------------------------------------
D|---------------------------------------------------------------------------------------------------
A|---------------------------------------------------------------------------------------------------
E|---------------------------------------------------------------------------------------------------

Stave 4:

E|--13--12-----------------------------------12--13p12------12--13--15--13p12--------------12--13p12------
B|----------15--14--13------------13v-------------------15---------------------15--13--15-------------15--
G|----------------------14p13h14--------------------------------------------------------------------------
D|--------------------------------------------------------------------------------------------------------
A|--------------------------------------------------------------------------------------------------------
E|--------------------------------------------------------------------------------------------------------

Stave 5:

E|----------12---------------------------------------------------------------------------------------
B|--13--15------15--14--13--15--14--13------13------13h15p13-------------13--------------------------
G|--------------------------------------14------14------------14--13h14------14--13--12--14--13--12--
D|---------------------------------------------------------------------------------------------------
A|---------------------------------------------------------------------------------------------------
E|---------------------------------------------------------------------------------------------------

Stave 6:

E|----------------------
B|----------------------
G|----------------------
D|--14--12--10-----10p9h
A|----------------------
E|----------------------

http://www.guitartabcreator.com
Guitar Tab Creator is intended to store guitar tab created through the tool. It currently does not support in-line text editing. Any text you place in here will be lost. If you need to comment on your tab, please use the "Tab Notes" section located below.