Sound will begin in 5 seconds

peggy-o practice solo

01234567891011121314151617181920212223
E
B
G
D
A
E
B
0 1 2 3 4 5 6 7 8 9 10 11 12 13 14 15 16 17 18 19 20 21 22 23
Song Science #1: How Pros Use 6 Chords to Write Hit Songs
(/) Slide Up  (\) Slide Down  (h) Hammer On  (p) Pull Off  (b) Bend (r) Release (v) Vibrato

Stave 1:

E|-------------------------------------------------------------------------------------------------
B|--17--16--15--14-----------------------------------------------------------------------------14--
G|------------------16--14-----14h16p14----------------------------------14------14--16p14h16------
D|---------------------------------------15h16--17--15h16--16--16p15h16------16--------------------
A|-------------------------------------------------------------------------------------------------
E|-------------------------------------------------------------------------------------------------

Stave 2:

E|----------------------14---------17--16--14-----------------------------------------------------
B|--15p14h15--17p15h17------17-----------------17--14---------------------------------------------
G|-----------------------------------------------------14h15h16--14-----13--13--13h14p13----------
D|----------------------------------------------------------------------------------------14--14--
A|------------------------------------------------------------------------------------------------
E|------------------------------------------------------------------------------------------------

Stave 3:

E|-------------------------------------------------------------------17p16h17--14------14--
B|-------------------------------------------------------17--17--17----------------17------
G|------------------14--16--16b18r16--14------14--16\18------------------------------------
D|------14--15--16------------------------16-----------------------------------------------
A|--17-------------------------------------------------------------------------------------
E|-----------------------------------------------------------------------------------------

Stave 4:

E|---------------------------------------------------------------------------------------------
B|--15------15--14------14-------------------------------------------------14--------------15--
G|------14----------14------16p14h16--14------14------------14-----16--14------16--14--16------
D|----------------------------------------16------16p14h16-------------------------------------
A|---------------------------------------------------------------------------------------------
E|---------------------------------------------------------------------------------------------

Stave 5:

E|------------------------------------------------------------------------------------
B|--14--------------------------------------------------------------------------------
G|------16--14----------14------14-----------------------------------------16--13h14--
D|--------------16--14------16------16p14h16-----14--14--14--16--13h14p13-------------
A|------------------------------------------------------------------------------------
E|------------------------------------------------------------------------------------

Stave 6:

E|--------------------------------------16h17p16--17------15--14-----------------------------------------
B|--15--13h14--14/17--17--17--19p17h19----------------17----------15-----15--14--------------------------
G|-------------------------------------------------------------------------------16--15--14--------------
D|-------------------------------------------------------------------------------------------16--15--14--
A|-------------------------------------------------------------------------------------------------------
E|-------------------------------------------------------------------------------------------------------

Stave 7:

E|---------------------------------------------------------------------------------------------------
B|----------------------------------14--15p14--------------------------------------------------------
G|----------------14--------14--16-------------16-----14--16--14----------14-------------------------
D|--14--16p15h16--------------------------------------------------14--16------16p14------14--16--14--
A|-----------------------------------------------------------------------------------16--------------
E|---------------------------------------------------------------------------------------------------

Stave 8:

E|--------------------------------------------------17--16--14--16--14----------14----------
B|----------------------------------------------------------------------17--15------17--14--
G|--------------14------16b18r16--14--16b18--16b18------------------------------------------
D|--14--15--16------16----------------------------------------------------------------------
A|------------------------------------------------------------------------------------------
E|------------------------------------------------------------------------------------------

Stave 9:

E|---------------------------------------------------------------------------------------------------
B|--17--14----------14---------------------------------------------------------------------------17--
G|----------16--14------16--14------14------------------------------------------14h16p14--16/18------
D|------------------------------16------16--14------14--------------14--15--16-----------------------
A|----------------------------------------------16------16--14--16-----------------------------------
E|---------------------------------------------------------------------------------------------------

Stave 10:

E|--------------------------------------------------------------------
B|--15p14----------14-------------------------------------------------
G|---------16--14------16--15--14--14----------14-----------------14--
D|-------------------------------------16--14------16--14-------------
A|---------------------------------------------------------15h16------
E|--------------------------------------------------------------------

http://www.guitartabcreator.com
Guitar Tab Creator is intended to store guitar tab created through the tool. It currently does not support in-line text editing. Any text you place in here will be lost. If you need to comment on your tab, please use the "Tab Notes" section located below.