Sound will begin in 5 seconds

peggy o huntington 4 16 78 part 2

01234567891011121314151617181920212223
E
B
G
D
A
E
B
0 1 2 3 4 5 6 7 8 9 10 11 12 13 14 15 16 17 18 19 20 21 22 23
Song Science #1: How Pros Use 6 Chords to Write Hit Songs
(/) Slide Up  (\) Slide Down  (h) Hammer On  (p) Pull Off  (b) Bend (r) Release (v) Vibrato

Stave 1:

E|--12--11--10--9h10p9--8/9-----------------------------------------------------
B|---------------------------10-------------10----------------------10--12------
G|-------------------------------9--10--11------11--------------11----------11--
D|--------------------------------------------------12--12--12------------------
A|------------------------------------------------------------------------------
E|------------------------------------------------------------------------------

Stave 2:

E|---------------------10--12-------------------------------------------------------9------
B|--12------10--12b14----------12b14r12--10------10-----------------10--10--10--12---------
G|------11-----------------------------------11----------------------------------------11--
D|-------------------------------------------------------9--10--11-------------------------
A|---------------------------------------------------12------------------------------------
E|-----------------------------------------------------------------------------------------

Stave 3:

E|--------------------------------------------------12--12--12--13--14--14b16--14p12--12--14--
B|--9h10p9--------------------12--12--14--------14--------------------------------------------
G|----------11--9--11--11/13------------------------------------------------------------------
D|--------------------------------------------------------------------------------------------
A|--------------------------------------------------------------------------------------------
E|--------------------------------------------------------------------------------------------

Stave 4:

E|------------------9--10--12----------------------------------------------------------------
B|--12b14r12b14r12-------------12b14r12--10------12--10------10--12b14r12b14r12--10------10--
G|-------------------------------------------11----------11--------------------------11------
D|-------------------------------------------------------------------------------------------
A|-------------------------------------------------------------------------------------------
E|-------------------------------------------------------------------------------------------

Stave 5:

E|----------------------------------------------------------------------9-------------------------------
B|--10--------------------------------------------10\9--9b11--10p9--10---------9--10--12------9---------
G|------11------9h11p9-----------------------------------------------------11-------------11-----11--9--
D|----------12----------9b11r9--7-----------7-----------------------------------------------------------
A|---------------------------------9--7--9--------------------------------------------------------------
E|------------------------------------------------------------------------------------------------------

Stave 6:

E|-----------------------------------------------------5-----------------------------------10--
B|--------------5--------------------------------------------10-------------10---------10------
G|--9--5--6--7--------4-----------------------4--5--6------------9--10--11------9--11----------
D|-----------------7-----6h7-----4--6--7p6h7---------------------------------------------------
A|----------------------------7----------------------------------------------------------------
E|---------------------------------------------------------------------------------------------

Stave 7:

E|----------------------10----------------------------12----------------------------------
B|------10--10--12----------14r12--10------10--12/14------12b14r12b14r12--12--12--14--14--
G|--11--------------11-----------------11-------------------------------------------------
D|----------------------------------------------------------------------------------------
A|----------------------------------------------------------------------------------------
E|----------------------------------------------------------------------------------------

Stave 8:

E|--12--12h14p12h14--12b14--12--9--12-----10b12r9--9--12--12--9--12--12--14--14/17--17--17--17--17--
B|-------------------------------------9------------------------------------------------------------
G|--------------------------------------------------------------------------------------------------
D|--------------------------------------------------------------------------------------------------
A|--------------------------------------------------------------------------------------------------
E|--------------------------------------------------------------------------------------------------

Stave 9:

E|--17b19r17--17--17--17p16--16--16--16--14--14---------------------------10--12--10---------
B|-----------------------------------------------17b19--17--17\15--12b14--------------14r12--
G|-------------------------------------------------------------------------------------------
D|-------------------------------------------------------------------------------------------
A|-------------------------------------------------------------------------------------------
E|-------------------------------------------------------------------------------------------

Stave 10:

E|--------------------------------------------------------------------------------------------
B|--10--------------10--10--12---------10----------10-----------------------------------------
G|------11------11------------------9----------11---------------------------------------------
D|----------12------------------11---------12-------------7--------------2--5--4--2-----------
A|-----------------------------------------------------9-----------4--5-----------------------
E|-----------------------------------------------------------------------------------0--2--4--

http://www.guitartabcreator.com
Guitar Tab Creator is intended to store guitar tab created through the tool. It currently does not support in-line text editing. Any text you place in here will be lost. If you need to comment on your tab, please use the "Tab Notes" section located below.