Sound will begin in 5 seconds

peggy o huntington 4 16 78 part 1

01234567891011121314151617181920212223
E
B
G
D
A
E
B
0 1 2 3 4 5 6 7 8 9 10 11 12 13 14 15 16 17 18 19 20 21 22 23
Song Science #1: How Pros Use 6 Chords to Write Hit Songs
(/) Slide Up  (\) Slide Down  (h) Hammer On  (p) Pull Off  (b) Bend (r) Release (v) Vibrato

Stave 1:

E|--------------------9------10------------------------------------------------------
B|--------10--10--12-----12----------10h12p10-------------10-------------------------
G|--9/11-------------------------11------------11--10h11------11---------------------
D|----------------------------------------------------------------12------10--9------
A|--------------------------------------------------------------------12---------12--
E|-----------------------------------------------------------------------------------

Stave 2:

E|------------------17------16h17p16--14------14-----------------------------------------------------
B|--14--15--16--17------17----------------17------17--14------14--17--17--17-----------------15--17--
G|--------------------------------------------------------16-------------------------16--18----------
D|-------------------------------------------------------------------------------18------------------
A|---------------------------------------------------------------------------------------------------
E|---------------------------------------------------------------------------------------------------

Stave 3:

E|--14--17--14--15--14-------------------12------14--12-------------------------------------------------
B|----------------------17--------13/14------14----------14--13--12--10-------------10------------------
G|-----------------------------------------------------------------------11--10h11------11--------------
D|------------------------------------------------------------------------------------------11--10--11--
A|------------------------------------------------------------------------------------------------------
E|------------------------------------------------------------------------------------------------------

Stave 4:

E|------------------------------------------------------------------------------
B|------------------------------------------------------------------------------
G|------------------------9--11--10--9---------9--------------------------------
D|--10--9----------10/11----------------10h11-----11--10\9--7-----7----------7--
A|---------12--12----------------------------------------------9-----7--8h9-----
E|------------------------------------------------------------------------------

Stave 5:

E|--------------------------------------------------------------------------9-------------------------
B|-------------------10-----------------------------10------------10--9h10-----12p10--12--------------
G|----------------9---------------9------9--10--11------9--10h11--------------------------11--11--11--
D|--9---------11------------9/11-----11---------------------------------------------------------------
A|-----9--12------------------------------------------------------------------------------------------
E|----------------------------------------------------------------------------------------------------

Stave 6:

E|---------------------9------------------------------------------------------9------9--9--10p9h10--
B|-------------10--12-----12--10------------------------------10------10--12-----12-----------------
G|--9--10--11---------------------11---------9---------9--11------11--------------------------------
D|------------------------------------12/14-----10h11-----------------------------------------------
A|--------------------------------------------------------------------------------------------------
E|--------------------------------------------------------------------------------------------------

Stave 7:

E|--12------12--10--9---------------------------12------12------14------12--14-----14--17--14--
B|------12-------------12p10--12/13/14--14--14------14------14------14-------------------------
G|---------------------------------------------------------------------------------------------
D|---------------------------------------------------------------------------------------------
A|---------------------------------------------------------------------------------------------
E|---------------------------------------------------------------------------------------------

Stave 8:

E|------14--------------14--------------------14--12-----------------------------------------
B|--14------17--14--17------14--14-----12b14----------14--12--12--11--10---------10----------
G|------------------------------------------------------------------------10h11------10--11--
D|-------------------------------------------------------------------------------------------
A|-------------------------------------------------------------------------------------------
E|-------------------------------------------------------------------------------------------

Stave 9:

E|---------------------------------------------------------------------------------------------
B|-----------------------------------------------------------------------------------------10--
G|--11------9---------9------9h11------------------------------------9/11---------------9------
D|------11-----10h11-----11--------11--10/9--7-----7--9-----7--9--7--------11\9--7--11---------
A|----------------------------------------------9----------------------------------------------
E|---------------------------------------------------------------------------------------------

http://www.guitartabcreator.com
Guitar Tab Creator is intended to store guitar tab created through the tool. It currently does not support in-line text editing. Any text you place in here will be lost. If you need to comment on your tab, please use the "Tab Notes" section located below.