Sound will begin in 5 seconds

the other one 5/2/70 part 2

01234567891011121314151617181920212223
E
B
G
D
A
E
B
0 1 2 3 4 5 6 7 8 9 10 11 12 13 14 15 16 17 18 19 20 21 22 23
Song Science #1: How Pros Use 6 Chords to Write Hit Songs
(/) Slide Up  (\) Slide Down  (h) Hammer On  (p) Pull Off  (b) Bend (r) Release (v) Vibrato

Stave 1:

E|--------------17b19--17--17--15--15--15--15--14--14--14b16r14-----14b16r14--14--
B|--15--17--17--------------------------------------------------------------------
G|--------------------------------------------------------------------------------
D|--------------------------------------------------------------------------------
A|--------------------------------------------------------------------------------
E|--------------------------------------------------------------------------------

Stave 2:

E|--12--14--15--15--15--15--17p15p14--------------14--15p14--------------14----------------
B|------------------------------------15--15--17-------------17--15--17------17p15p14--15--
G|-----------------------------------------------------------------------------------------
D|-----------------------------------------------------------------------------------------
A|-----------------------------------------------------------------------------------------
E|-----------------------------------------------------------------------------------------

Stave 3:

E|--------------------------------------------------------------------------------------------------------
B|--14--15--17--15p14--15--14----------------------------------15------15------14-------------------------
G|-----------------------------16--16--16--14--16--16--16--14------16------14------12b14------------------
D|----------------------------------------------------------------------------------------14--12--14--14--
A|--------------------------------------------------------------------------------------------------------
E|--------------------------------------------------------------------------------------------------------

Stave 4:

E|---------------------------------------------------------------------------------
B|--------------------------15------14---------------------------------------------
G|----------------------16------14------12b14--------------------------------------
D|--12--14--14--14--12-------------------------14--12------14--12--14--14--14--12--
A|-----------------------------------------------------14--------------------------
E|---------------------------------------------------------------------------------

Stave 5:

E|------------------------------------------------------------------------------------------------
B|------15------14-------------------------------------------------15------14---------------------
G|--16------14------12b14--------------------------------------16------14------12b14--------------
D|-------------------------14--12------14--12--14--14--14--12-------------------------14--12------
A|---------------------------------14---------------------------------------------------------14--
E|------------------------------------------------------------------------------------------------

Stave 6:

E|-----------------------------------------------------------------------------------------------------
B|--------------------------15------14-----------------------------------------------------------------
G|----------------------16------14------12b14----------------------------------------------------------
D|--12--14--14--14--12-------------------------14--12------14--12--14--14--14--12--14--12--------------
A|-----------------------------------------------------14----------------------------------14--12------
E|-------------------------------------------------------------------------------------------------12--

Stave 7:

E|---------------------------------------------------------------------------------------
B|----------------------------------------------------------------------------------7b9--
G|-----------------------------------------------------9b10--7--9p7-----------7--9-------
D|----------------------------5-----5--7p6-----7/9-------------------9--8--9-------------
A|-----5/7--7-----5--7--5--7-----7----------7--------------------------------------------
E|--7----------7-------------------------------------------------------------------------

Stave 8:

E|---------------------------------------------------------------------------------------------------
B|----------------------15-----------------12--------------------------------------------------------
G|--14--16--16--16--14------12--14--14---------14--12------14------12--14p12------12b14--------------
D|-----------------------------------------------------14------14-------------14---------14--12------
A|-----------------------------------------------------------------------------------------------14--
E|---------------------------------------------------------------------------------------------------

Stave 9:

E|------------------------------------------------------------------------------
B|------------------------------------------------------------------------------
G|------------------------------------------------------------------------------
D|--12--14--12--12--------------12--12--------------14--14--------------12--12--
A|------------------12--13--14----------12--13--14----------12--13--14----------
E|------------------------------------------------------------------------------

Stave 10:

E|--------------------------------------------------------------------------------
B|---------------------------------15b17r15--17--15--17--17--17--15--17--17--17v--
G|--14b16r14--14p12--14--12b14----------------------------------------------------
D|--------------------------------------------------------------------------------
A|--------------------------------------------------------------------------------
E|--------------------------------------------------------------------------------

Stave 11:

E|----------15--15----------17--17--------------15--15----------17--17--------------15--15----------17--
B|--17--17----------15--17----------15--16--17----------16--17----------15--16--17----------16--17------
G|------------------------------------------------------------------------------------------------------
D|------------------------------------------------------------------------------------------------------
A|------------------------------------------------------------------------------------------------------
E|------------------------------------------------------------------------------------------------------

Stave 12:

E|--------------12--12--------------14--14----------15----------------------15----------------------15--
B|--12--13--14----------12--13--14----------17--17------17--17--17--17--17------17--17--17--17--17------
G|------------------------------------------------------------------------------------------------------
D|------------------------------------------------------------------------------------------------------
A|------------------------------------------------------------------------------------------------------
E|------------------------------------------------------------------------------------------------------

Stave 13:

E|----------------------17----------------------15----------------------15------------------15--
B|--17--17--17--17--17------17--17--17--17--17------17--17--17--17--17------17--17--17--17------
G|----------------------------------------------------------------------------------------------
D|----------------------------------------------------------------------------------------------
A|----------------------------------------------------------------------------------------------
E|----------------------------------------------------------------------------------------------

Stave 14:

E|----------------------15--------------------------------------------------------------------------
B|--17--17--17--17--17------17--17--17--15--15--15--15--14--15--15--15--14--15--15--15--14----------
G|------------------------------------------------------------------------------------------16--14--
D|--------------------------------------------------------------------------------------------------
A|--------------------------------------------------------------------------------------------------
E|--------------------------------------------------------------------------------------------------

Stave 15:

E|---------------------------------------------------------------------------
B|------------------------12-------------------------------------------------
G|--16--16--16-----14b16------14--12------12b13------------------------------
D|------------------------------------14---------14--12----------------------
A|-------------------------------------------------------14--13--12--11--11--
E|---------------------------------------------------------------------------

Stave 16:

E|---------12------------------------------------------------------------------------
B|--------------------------------------------------------15\14----------------------
G|--14b16------14--12b13---------------------------14b16---------13--14--13----------
D|------------------------14--12------12--14--14v----------------------------14--14--
A|--------------------------------14-------------------------------------------------
E|-----------------------------------------------------------------------------------

Stave 17:

E|---------12------------------------------------------------------------------------------------------
B|--15b17------15--12------12--------------------------------------12----------------------------------
G|---------------------14------14--12------14------12--14--12----------14--12------14------12--14--13--
D|-------------------------------------14------14--------------14--------------14------14--------------
A|-----------------------------------------------------------------------------------------------------
E|-----------------------------------------------------------------------------------------------------

Stave 18:

E|--------------------------------------------------------------------------------------------------
B|--------------------------------------------------------------------------------------------------
G|------13------------------------------------------------------------------------------------------
D|--14------14--12--------------12------------------------------------------------------------------
A|------------------14--13--14------14--13--12--11--12--11--------------11------11--12--11--12--13--
E|----------------------------------------------------------12--11--12------12----------------------

Stave 19:

E|----------------------------------------------------------------------------------------------------
B|-----------------------------------------------------------------------------15------15--17p15--17--
G|--------------------------------------------14------12--14p12--14--16p15h16------16-----------------
D|---------------------12------12--14p13--14------14--------------------------------------------------
A|--12--13--14p13--14------14-------------------------------------------------------------------------
E|----------------------------------------------------------------------------------------------------

Stave 20:

E|--15------15--17p15--15--14-----15--14--12------12--14p12h14--15--14--12------12--14p12--14--
B|------17------------------------------------15----------------------------15-----------------
G|---------------------------------------------------------------------------------------------
D|---------------------------------------------------------------------------------------------
A|---------------------------------------------------------------------------------------------
E|---------------------------------------------------------------------------------------------

Stave 21:

E|--15--14--12------12--14--15--14--12------12--14p12h14--15--14--14--12------14p12h14--15--14--12--
B|--------------15----------------------15--------------------------------15------------------------
G|--------------------------------------------------------------------------------------------------
D|--------------------------------------------------------------------------------------------------
A|--------------------------------------------------------------------------------------------------
E|--------------------------------------------------------------------------------------------------

Stave 22:

E|--14p12--14p12--15v-------------------------------------------------------17--17----------
B|----------------------------17--19--20--20\19--17--19--20--20\19--17--19----------17--19--
G|------------------------16----------------------------------------------------------------
D|------------------------------------------------------------------------------------------
A|------------------------------------------------------------------------------------------
E|------------------------------------------------------------------------------------------

Stave 23:

E|--------------------------------------------------------------------17--17------------------------
B|--20\19--20\19--17--19--20\19--20\19--17--19--20\19--20\19--17--19----------17--19--20\19--20\19--
G|--------------------------------------------------------------------------------------------------
D|--------------------------------------------------------------------------------------------------
A|--------------------------------------------------------------------------------------------------
E|--------------------------------------------------------------------------------------------------

Stave 24:

E|------------------------------------------------------17--17--------------------------------
B|--17--19--20\19--20\19--17--19--20\19--20\19--17--19----------17--19--20\19--20\19--17--19--
G|--------------------------------------------------------------------------------------------
D|--------------------------------------------------------------------------------------------
A|--------------------------------------------------------------------------------------------
E|--------------------------------------------------------------------------------------------

http://www.guitartabcreator.com
Guitar Tab Creator is intended to store guitar tab created through the tool. It currently does not support in-line text editing. Any text you place in here will be lost. If you need to comment on your tab, please use the "Tab Notes" section located below.