Sound will begin in 5 seconds

the other one 5/2/70

01234567891011121314151617181920212223
E
B
G
D
A
E
B
0 1 2 3 4 5 6 7 8 9 10 11 12 13 14 15 16 17 18 19 20 21 22 23
Song Science #1: How Pros Use 6 Chords to Write Hit Songs
(/) Slide Up  (\) Slide Down  (h) Hammer On  (p) Pull Off  (b) Bend (r) Release (v) Vibrato

Stave 1:

E|---------------------------------------------------------------------------------
B|---------------------------------------------------------------------------------
G|-------------------------------------7--7-----7--7--------7----------------------
D|--7/9--7--9--11\9--7--9--9--7--9--9--------9--------7--9-----9--7--9--9--7--8/9--
A|---------------------------------------------------------------------------------
E|---------------------------------------------------------------------------------

Stave 2:

E|---------------------------------------------------------------------7------7--8--7-------------7------
B|-----------------------------------------7-----7--8--7-----7--8--10-----10-----------10--8--10-----10--
G|-----7--7--------------9-----7--9--7--9-----9-----------9----------------------------------------------
D|--9--------9--7--9--9-----9----------------------------------------------------------------------------
A|-------------------------------------------------------------------------------------------------------
E|-------------------------------------------------------------------------------------------------------

Stave 3:

E|-----------------------------------------------------------------------------------------------
B|--8p7--8--8b10r8--7--8--7-----------------7--8b10-----8b10r8--7--8--7-----------7-----7--8b10--
G|---------------------------9--8--9--9--9-------------------------------9--8--9-----9-----------
D|-----------------------------------------------------------------------------------------------
A|-----------------------------------------------------------------------------------------------
E|-----------------------------------------------------------------------------------------------

Stave 4:

E|-------------------------------------------------------------------------------------------------
B|--8b10r8--7--8p7-----------7-----7h8p7-----------7-----7--8-----7--------------------------------
G|------------------9--8--9-----9---------9--8--9-----9--------9-----9--7-----9-----7--9--7--------
D|-------------------------------------------------------------------------9-----9-----------9--9--
A|-------------------------------------------------------------------------------------------------
E|-------------------------------------------------------------------------------------------------

Stave 5:

E|------------------------------------------------------------------------------------------------
B|------------------------------------------------------------------------------------------------
G|----------------------9--9--9------------------9--9--9---------------------9--9--9--------------
D|--7--9--9--9--9p7--9-----------9--9--9--9p7h9-----------7--9--9--9--9p7h9-----------7--9--9--9--
A|------------------------------------------------------------------------------------------------
E|------------------------------------------------------------------------------------------------

Stave 6:

E|--
B|--
G|--
D|--
A|--
E|--

Stave 7:

E|-------------------------------------------------------------------------------------------------
B|-------------------------------------------------------------------------------------------------
G|---------7---------------------------------------------------------------------------------------
D|--9p7h9-----9p7h9--9--9--9--9--9--7--7--7--5--5--5--7--5--5--5--5--5--5--5--5--5--5--5--4--5--4--
A|-------------------------------------------------------------------------------------------------
E|-------------------------------------------------------------------------------------------------

Stave 8:

E|------------------------------------------------------------------------------------------------7--
B|------------------------------------------7---------------------------------7h8p7-----7--8--10-----
G|---------------------------------------------9v--7--9--9--9--7--9--9--9--9---------9---------------
D|--7/9--7--9--9--9--9p7--7--7--9--9--7--9-----------------------------------------------------------
A|---------------------------------------------------------------------------------------------------
E|---------------------------------------------------------------------------------------------------

Stave 9:

E|-------------------------------15--14--14b16--14b16r14--14p12--12--14--15--15\14--14--14--14--14v--12--
B|--8--10--10--10--10/12--12-----------------------------------------------------------------------------
G|-------------------------------------------------------------------------------------------------------
D|-------------------------------------------------------------------------------------------------------
A|-------------------------------------------------------------------------------------------------------
E|-------------------------------------------------------------------------------------------------------

Stave 10:

E|----------12--14b16--14v--14--12--14--15--14--12--12--12v-----------12--14--12--------------
B|--12--15---------------------------------------------------15v--15--------------15--14--12--
G|--------------------------------------------------------------------------------------------
D|--------------------------------------------------------------------------------------------
A|--------------------------------------------------------------------------------------------
E|--------------------------------------------------------------------------------------------

Stave 11:

E|--12------------------12--------------12--------------12------12--14--12------12--------------
B|------15--14--12--12------15--14--12------15--14--15------15--------------15------15--14--12--
G|----------------------------------------------------------------------------------------------
D|----------------------------------------------------------------------------------------------
A|----------------------------------------------------------------------------------------------
E|----------------------------------------------------------------------------------------------

Stave 12:

E|--12---------------------------12--14--14--------------12--------------12--------------
B|------15--14--12v--12--14--15--------------14--15--15------15--14--12------15--14--12--
G|---------------------------------------------------------------------------------------
D|---------------------------------------------------------------------------------------
A|---------------------------------------------------------------------------------------
E|---------------------------------------------------------------------------------------

Stave 13:

E|--12-----------------12------------------------------------------------------------------------------
B|------15--14--14/15------15--14--12--14--12------12--------------------------------------12----------
G|---------------------------------------------14------14--12------14------12--14--12----------14--12--
D|-------------------------------------------------------------14------14--------------14--------------
A|-----------------------------------------------------------------------------------------------------
E|-----------------------------------------------------------------------------------------------------

Stave 14:

E|------------------------------------------------------------------------------------------
B|------------------------------------------------------------------------------------------
G|------13----------------------------------------------------------------------------------
D|--14------14--12--------------12--14v--14--14--14p12--14--14--14--12----------------------
A|------------------14--13--14------------------------------------------14--12--14--10------
E|--------------------------------------------------------------------------------------12--

http://www.guitartabcreator.com
Guitar Tab Creator is intended to store guitar tab created through the tool. It currently does not support in-line text editing. Any text you place in here will be lost. If you need to comment on your tab, please use the "Tab Notes" section located below.