Sound will begin in 5 seconds

the other one 11/14/73

01234567891011121314151617181920212223
E
B
G
D
A
E
B
0 1 2 3 4 5 6 7 8 9 10 11 12 13 14 15 16 17 18 19 20 21 22 23
Song Science #1: How Pros Use 6 Chords to Write Hit Songs
(/) Slide Up  (\) Slide Down  (h) Hammer On  (p) Pull Off  (b) Bend (r) Release (v) Vibrato

Stave 1:

E|-----------------------------------------------------------------------------------7------------
B|-----------------------------------------------7-------7h8p7-----7-------7--8--10-----10--8--7--
G|----------------------------5-----5--7p5--7/9-----8h9---------9-----8h9-------------------------
D|------------5-----5--7p5h7-----7----------------------------------------------------------------
A|--5--7p5h7-----7--------------------------------------------------------------------------------
E|------------------------------------------------------------------------------------------------

Stave 2:

E|-------------------------------------------------------------------------------------------
B|--10--8--7-----7--8--------7---------------------------------------------------------------
G|------------9-----------9-----9--7-----7h9p7--------------7--9--7-----6--7--6--------7-----
D|---------------------9--------------9---------9--9--9-----------------------------9-----9--
A|-------------------------------------------------------------------------------------------
E|-------------------------------------------------------------------------------------------

Stave 3:

E|---------------------------------------------------------------------7--------7h8p7h8--10--8--7--
B|------------------------------------------8--7-----7-------7--8--10-----8h10---------------------
G|------------------------------------------------9-----8h9----------------------------------------
D|--7--9--7-----5--7--5-----5-------5--7/9---------------------------------------------------------
A|-----------------------7-----6h7-----------------------------------------------------------------
E|-------------------------------------------------------------------------------------------------

Stave 4:

E|--8--7---------7------------------------------------------------------------------------------
B|--------10--8-----10--8--7--10--8-----8-----7--8--7-----7-------------------------------------
G|-----------------------------------9-----9-----------9-----9p7-----7--9/11--11--------11\9p7--
D|----------------------------------------------------------------9-----------------------------
A|----------------------------------------------------------------------------------------------
E|----------------------------------------------------------------------------------------------

Stave 5:

E|-----------------------------------------------------------------7---------7--8------7------------
B|------------------------------7-------7--8-----7-------7--8--10-----8--10--------10-----10--8--7--
G|--7--9p7-----7-------7--8--9-----8h9--------9-----8h9---------------------------------------------
D|----------9-----8h9-------------------------------------------------------------------------------
A|--------------------------------------------------------------------------------------------------
E|--------------------------------------------------------------------------------------------------

Stave 6:

E|---------------------------------------------------------------------------------------------10--14--
B|--10--8--7-----8--7----------------------------------------8--7-----7--10--7-----7--9/10/11----------
G|------------9--------9-----9--7-----------------------8h9---------------------9----------------------
D|---------------------------------9-----9--9--7--7----------------------------------------------------
A|-----------------------------------------------------------------------------------------------------
E|-----------------------------------------------------------------------------------------------------

Stave 7:

E|--17--15p14--
B|-------------
G|-------------
D|-------------
A|-------------
E|-------------

Stave 8:

E|--
B|--
G|--
D|--
A|--
E|--

http://www.guitartabcreator.com
Guitar Tab Creator is intended to store guitar tab created through the tool. It currently does not support in-line text editing. Any text you place in here will be lost. If you need to comment on your tab, please use the "Tab Notes" section located below.