Sound will begin in 5 seconds

note fade away barton part 3

01234567891011121314151617181920212223
E
B
G
D
A
E
B
0 1 2 3 4 5 6 7 8 9 10 11 12 13 14 15 16 17 18 19 20 21 22 23
Song Science #1: How Pros Use 6 Chords to Write Hit Songs
(/) Slide Up  (\) Slide Down  (h) Hammer On  (p) Pull Off  (b) Bend (r) Release (v) Vibrato

Stave 1:

E|-----------------------------------------------------------------------------------
B|---------12--12------------------------------------------------12------------------
G|--11b13----------13r11--9--11b13--11b13v--9--11--11b13--11b13------9--11b13r11--9--
D|-----------------------------------------------------------------------------------
A|-----------------------------------------------------------------------------------
E|-----------------------------------------------------------------------------------

Stave 2:

E|-------------------------------------------------------------------------------------------------
B|----------------12------15--14--14--13--12------12---------12------------------------------------
G|------9--11/13------13----------------------14------12h13----------------------------------------
D|--11-----------------------------------------------------------14--14---------12------14/16--14--
A|-----------------------------------------------------------------------13h14------14-------------
E|-------------------------------------------------------------------------------------------------

Stave 3:

E|----------------------------------------------------------------------------------------------
B|------------------------12--------------------------------------------------------------------
G|-----------------12h13------14------12h13-----------------------------------------------------
D|------13--14--------------------14---------14--13--------------12--12\11--14--11--16--15--14--
A|--16-----------------------------------------------12--13--14---------------------------------
E|----------------------------------------------------------------------------------------------

Stave 4:

E|-------------------------------------12------12--14--16----------12----------
B|-------------------------12--14--12------14--------------12--14------14b16v--
G|------------------11/13------------------------------------------------------
D|------12--13--14-------------------------------------------------------------
A|--14-------------------------------------------------------------------------
E|-----------------------------------------------------------------------------

Stave 5:

E|----------12--------------------------------------------------------------------------
B|--12--14------12------14--12----------------------------------------------------------
G|------------------14----------12h13-----------------------------------------------13--
D|-------------------------------------14--12--14---------14--16--14--16/18-----12------
A|-------------------------------------------------14/16--------------------------------
E|--------------------------------------------------------------------------------------

Stave 6:

E|-----------------------------------------------------------------------------------------------
B|--12---------12-------------------12--14b16--14v-----------------------------------------------
G|------14b16------14b16r14--12h13------------------13--11b13r11--9------9------9--11b13--11--9--
D|-------------------------------------------------------------------11-----11-------------------
A|-----------------------------------------------------------------------------------------------
E|-----------------------------------------------------------------------------------------------

Stave 7:

E|--------------------------------------------------10--12--12b14r12--10--12--12b14r12--12--
B|---------12-------------------------------------------------------------------------------
G|--11b13------13r11--9--7--9b11--9--7--9--9b11--9------------------------------------------
D|------------------------------------------------------------------------------------------
A|------------------------------------------------------------------------------------------
E|------------------------------------------------------------------------------------------

Stave 8:

E|--12b14--12-------------------------------------------------------------------
B|------------------------------------------------------------------------------
G|-------------7--9--9--9--9--9--9-----9--9--9--8--7----------------------------
D|----------------------------------------------------9--8--7--5--6--7--5h6-----
A|---------------------------------------------------------------------------7--
E|------------------------------------------------------------------------------

http://www.guitartabcreator.com
Guitar Tab Creator is intended to store guitar tab created through the tool. It currently does not support in-line text editing. Any text you place in here will be lost. If you need to comment on your tab, please use the "Tab Notes" section located below.