Sound will begin in 5 seconds

not fadeaway barton part 4

01234567891011121314151617181920212223
E
B
G
D
A
E
B
0 1 2 3 4 5 6 7 8 9 10 11 12 13 14 15 16 17 18 19 20 21 22 23
Song Science #1: How Pros Use 6 Chords to Write Hit Songs
(/) Slide Up  (\) Slide Down  (h) Hammer On  (p) Pull Off  (b) Bend (r) Release (v) Vibrato

Stave 1:

E|----------------------------------------------------------------------------------
B|----------------------------------------------------------------------------------
G|--------------------7--9p7--9b11r9--7-----7-----7--9p7-----7----------------------
D|--------6--7p6h7/9---------------------9-----9----------9-----9--8--7-----5h6-----
A|--7--9-----------------------------------------------------------------7-------7--
E|----------------------------------------------------------------------------------

Stave 2:

E|--------------------------------------------------------------------------------------------------
B|---------------------------8h9------------------------------------10--8--10--9--10--12--10--8-----
G|-------7--7-------7--8--9-------9--8--7----------7-------7--8--9-------------------------------9--
D|--7/9--------8h9-------------------------9--8h9-----8h9-------------------------------------------
A|--------------------------------------------------------------------------------------------------
E|--------------------------------------------------------------------------------------------------

Stave 3:

E|-----------------------------------7--10--7------10--7------------7--------------------------
B|-------8--8/9-----------------8h9------------10---------10--9--8-----10--8-----8/9-----------
G|--8h9----------9--8--7------------------------------------------------------9-------9--8--7--
D|------------------------9--------------------------------------------------------------------
A|---------------------------------------------------------------------------------------------
E|---------------------------------------------------------------------------------------------

Stave 4:

E|-------------14--15--16--17--15h16--------------------------------------------------------------------
B|--12/15--15-------------------------17-----15--17------15------14------13------12---------------------
G|---------------------------------------------------16------15------14------14------13------12h13------
D|---------------------------------------------------------------------------------------14---------14--
A|------------------------------------------------------------------------------------------------------
E|------------------------------------------------------------------------------------------------------

Stave 5:

E|----------------------------------------------------------------------------------------------------
B|----------------------------------------------------------------------------------------------------
G|-----------------------------------------------------------------------------13--------------12h13--
D|--14--14--13--12------12-------------14------12----------------------------------14--12--14---------
A|------------------14------13h14--14------14------14\12--10h11---------12/14-------------------------
E|---------------------------------------------------------------12-----------------------------------

Stave 6:

E|------------------------------------------------------------------------------16--------------------
B|---------15--12-------------------------------------------------------------------------------------
G|--14b16----------14b16r14--12------12--13--14p13--14b16--12h13---------14/16------16\14--12h13------
D|-------------------------------14-------------------------------14------------------------------14--
A|----------------------------------------------------------------------------------------------------
E|----------------------------------------------------------------------------------------------------

Stave 7:

E|-------------------------12-----------------------------------------------------------
B|--------------------------------------------------------------------------------------
G|--14--12------12h13--13------13--13--12h13----------------------14--12/13--12/13------
D|----------14--------------------------------14--12--------------------------------14--
A|----------------------------------------------------14--13--12------------------------
E|--------------------------------------------------------------------------------------

Stave 8:

E|---------------------12-------------------------------------------
B|--15b17--15--15b17v------14b16r14--12------12---------12--14--15--
G|---------------------------------------14------12h13--------------
D|------------------------------------------------------------------
A|------------------------------------------------------------------
E|------------------------------------------------------------------

http://www.guitartabcreator.com
Guitar Tab Creator is intended to store guitar tab created through the tool. It currently does not support in-line text editing. Any text you place in here will be lost. If you need to comment on your tab, please use the "Tab Notes" section located below.