Sound will begin in 5 seconds

not fade away barton hall solo 2

01234567891011121314151617181920212223
E
B
G
D
A
E
B
0 1 2 3 4 5 6 7 8 9 10 11 12 13 14 15 16 17 18 19 20 21 22 23
Song Science #1: How Pros Use 6 Chords to Write Hit Songs
(/) Slide Up  (\) Slide Down  (h) Hammer On  (p) Pull Off  (b) Bend (r) Release (v) Vibrato

Stave 1:

E|---------17------------------------12-------------------------------------------------------
B|--15/17------17\15--15--14--13b15------15r13------------------12---------10--12b14--10--10--
G|----------------------------------------------14--------------------------------------------
D|--------------------------------------------------14--13--12------10/11---------------------
A|--------------------------------------------------------------------------------------------
E|--------------------------------------------------------------------------------------------

Stave 2:

E|---------10------12--10----------------------7--------------------------------------------------------
B|--10/12------12----------10b12--10--7--8b10-----10r8--------------------------------------------------
G|------------------------------------------------------9--7-------9-----7---------------------4--------
D|------------------------------------------------------------8h9-----9-----9--8--7\6-----5/6-----------
A|-------------------------------------------------------------------------------------7----------5--7--
E|------------------------------------------------------------------------------------------------------

Stave 3:

E|------------------------------------------------8h9------8/9------9--10--11--12--9-------------
B|--------------------5-----5-----8-----8--9--10-------10-------10--------------------10-----10--
G|-----------------6-----6-----6----------------------------------------------------------9------
D|-----------7-----------------------------------------------------------------------------------
A|--5--6--7-----7--------------------------------------------------------------------------------
E|-----------------------------------------------------------------------------------------------

Stave 4:

E|-----------------------------------------------------------12--14b16----------12-------------
B|-------------------------------------------12------12--14-------------12--14-------------12--
G|--11p9------9-----------------------12/13------13---------------------------------12/13------
D|--------11-----10h11--11--11/14--------------------------------------------------------------
A|---------------------------------------------------------------------------------------------
E|---------------------------------------------------------------------------------------------

Stave 5:

E|----------------------------------------------------------------------------------------
B|--14p12---------------------------------9----------------------5--7b9r7--5-----5--7b9v--
G|---------13--13\11---------9---------9----------------4--4--6---------------6-----------
D|--------------------9--11---------9--------------4/6------------------------------------
A|------------------------------11--------------------------------------------------------
E|----------------------------------------------------------------------------------------

Stave 6:

E|---------------------------------------------------------------------------------------------------
B|--12----------12--------------------12--------------------------------------------------12---------
G|------13--11------13--12/13-----13------13--11/13--11--9------9--11b13r11--9------9--9------13r11--
D|----------------------------------------------------------11------------------11-------------------
A|---------------------------------------------------------------------------------------------------
E|---------------------------------------------------------------------------------------------------

Stave 7:

E|-----------------------------------------------------------------------------------------------
B|-----------------------------12--14--12--------------------------------------------------------
G|--9------9--9-----12/13--13--------------13--12/13--11--9------9--11b12r11--9------------9--9--
D|-----11----------------------------------------------------11------------------11--9h11--------
A|-----------------------------------------------------------------------------------------------
E|-----------------------------------------------------------------------------------------------

Stave 8:

E|--14b16---------------------------------------------------------------------------------------------
B|-------------------12--12--9---------9--------------------------------------------------------------
G|------------11b13-------------11b13-----13r11--9------9--11b12--11b13--13r11--9---------9-----------
D|--------------------------------------------------11-----------------------------11--9--------------
A|-------------------------------------------------------------------------------------------11\9--7--
E|----------------------------------------------------------------------------------------------------

Stave 9:

E|-----------------------------------------------------------------------
B|-----8-----9-----12----------------------------------------------------
G|---------------------13r11--9\7-----7--9b11--13r11--9--------9--11b13--
D|--8-----9------------------------9---------------------9/11------------
A|-----------------------------------------------------------------------
E|-----------------------------------------------------------------------

http://www.guitartabcreator.com
Guitar Tab Creator is intended to store guitar tab created through the tool. It currently does not support in-line text editing. Any text you place in here will be lost. If you need to comment on your tab, please use the "Tab Notes" section located below.