Sound will begin in 5 seconds

not fade away barton hall solo 1

01234567891011121314151617181920212223
E
B
G
D
A
E
B
0 1 2 3 4 5 6 7 8 9 10 11 12 13 14 15 16 17 18 19 20 21 22 23
Song Science #1: How Pros Use 6 Chords to Write Hit Songs
(/) Slide Up  (\) Slide Down  (h) Hammer On  (p) Pull Off  (b) Bend (r) Release (v) Vibrato

Stave 1:

E|---------14--12---------------------------------------------------------------14--12----------
B|--13h14----------------------14----------12--10------10------10h12p10--12/14----------14--12--
G|-----------------14--13--12-------------------------------------------------------------------
D|---------------------------------13--12----------11------11-----------------------------------
A|----------------------------------------------------------------------------------------------
E|----------------------------------------------------------------------------------------------

Stave 2:

E|-------------------------------------------------------------------------------------------------------
B|--14---------12-------------------------------------12--11--10---------12------------------------------
G|------12h13------9--------9--11b13r11--9------9-----------------12h13------13--------------14--13------
D|--------------------9h11------------------11-----------------------------------14------------------14--
A|-----------------------------------------------------------------------------------14--13--------------
E|-------------------------------------------------------------------------------------------------------

Stave 3:

E|-----------------------------------------------------------------------------------
B|------------------14--12-----------------10-----10---------------10------------10--
G|--------------14----------14\0---------------9----------9------------9------9------
D|------11--14-----------------------9/11-------------11-----7/11---------11---------
A|--12-------------------------------------------------------------------------------
E|-----------------------------------------------------------------------------------

Stave 4:

E|---------13-------------------7------------------------------------------------------------------
B|--11b13------13r11--10--8b10-----10r8-------------7-------5--------------------------------------
G|---------------------------------------9---------------------------------------------------------
D|------------------------------------------9--8/7-----5/6-----6\4--1p0-----2-------------------2--
A|-----------------------------------------------------------------------2--------------2--4p2-----
E|--------------------------------------------------------------------------------2--4-------------

Stave 5:

E|-------------------------------------------------------------------------------------------------------
B|-------------------------------------------------------------------------------------------------------
G|-------------------------------------------------------------------------------------------------------
D|--4/5--4--2-----2--4/7----------2--5\4--2-----2-----------------------------2--------2--5--4--2-----2--
A|-------------4----------2--3h4-------------4--------------------2-----2--4--------4--------------4-----
E|----------------------------------------------------0--2--3--4-----4-----------------------------------

Stave 6:

E|--------------------------------------------------------------------------------12-------7-------------
B|--------------------------------------------------------------------------5---------8h9-----8b10r8-----
G|-----------------------------------------------------------------------4----------------------------9--
D|--4/5--4--2-----2--2-----2--2-----------------2--4/5--4--2-----2--4/6----------------------------------
A|-------------4--------4--------4--2-----2--4----------------4------------------------------------------
E|-------------------------------------------------------------------------------------------------------

Stave 7:

E|-----------------------------------------------------------------------------------------
B|---------------------7--------5----------------------------------------------------------
G|-----7-------7---------------------------------------------------------------1--2--3--4--
D|--9-----8h9-----8/7-----5--6-----6\4--2--2-----3--4-------2--5\4--2-------2--------------
A|-----------------------------------------------------2h4-------------2h4-----------------
E|-----------------------------------------------------------------------------------------

Stave 8:

E|----------------------------------7--4-------------4--7--6--5-------7--9--8--7------7-------7-----
B|--3-----3--3-------5--------4--5----------------5--------------7/9--------------10-----8h9--------
G|-----4--------3h4-----4--6--------------4--5/6-------------------------------------------------9--
D|--------------------------------------------------------------------------------------------------
A|--------------------------------------------------------------------------------------------------
E|--------------------------------------------------------------------------------------------------

Stave 9:

E|-------9------7--9--14------11--12--13--14--12--14/16--16-----12--12--14-------------------------12--
B|--8h9-----10------------14----------------------------------------------------12--14--11h12--12------
G|--------------------------------------------------------------------------14-------------------------
D|-----------------------------------------------------------------------------------------------------
A|-----------------------------------------------------------------------------------------------------
E|-----------------------------------------------------------------------------------------------------

Stave 10:

E|--12----------9--7--------------------------------------------12--------------------------------------
B|------12--10--------8h9--------------------12--11--10--12/14------12--11------------------------------
G|-------------------------9-----------9--9-----------------------------------------12--13--------------
D|-------------------------------9/11---------------------------------------14--14----------14--13--14--
A|------------------------------------------------------------------------------------------------------
E|------------------------------------------------------------------------------------------------------

Stave 11:

E|---------16---------12-------------------------------------------12---------------------------------
B|-----------------------------------------12--14------12--14--16------16r14--12------12--------------
G|--14/16------11/13------13\11--------------------14-----------------------------14------12--13------
D|----------------------------------12/14---------------------------------------------------------14--
A|----------------------------------------------------------------------------------------------------
E|----------------------------------------------------------------------------------------------------

Stave 12:

E|------------------------
B|------------------------
G|---------------------9--
D|------------------------
A|--14--13--12--10/11-----
E|------------------------

http://www.guitartabcreator.com
Guitar Tab Creator is intended to store guitar tab created through the tool. It currently does not support in-line text editing. Any text you place in here will be lost. If you need to comment on your tab, please use the "Tab Notes" section located below.