Sound will begin in 5 seconds

not fade away 10 22 78 winterland

01234567891011121314151617181920212223
E
B
G
D
A
E
B
0 1 2 3 4 5 6 7 8 9 10 11 12 13 14 15 16 17 18 19 20 21 22 23
Song Science #1: How Pros Use 6 Chords to Write Hit Songs
(/) Slide Up  (\) Slide Down  (h) Hammer On  (p) Pull Off  (b) Bend (r) Release (v) Vibrato

Stave 1:

E|------------15b16-------------------------------------------------------------------------------
B|--17p15h17---------17p15------------------------------------------------------------------------
G|--------------------------16--16\14--12------12--14--12b13--------------------------------------
D|-----------------------------------------14-----------------14------12--12--12--12--12--12--14--
A|----------------------------------------------------------------14------------------------------
E|------------------------------------------------------------------------------------------------

Stave 2:

E|---------------------------------------------------------------------------------------------------
B|---------15--------------------------------12------------------------------------------------------
G|--14/16------16--14b16--14--14--12--14b16------14--12--13------------------------------------------
D|-----------------------------------------------------------14--12------12--13--14------------------
A|-------------------------------------------------------------------14--------------14--13--12--11--
E|---------------------------------------------------------------------------------------------------

Stave 3:

E|-------------------------------------------------------------------------------------------------
B|-----------------------------------------------------------------15------------------------------
G|-----------------------------12------12--14--12--14--15--14--15------16--15--12--12------12--13--
D|-------------------14p12h14------14--------------------------------------------------14----------
A|--9--11--12--9h11--------------------------------------------------------------------------------
E|-------------------------------------------------------------------------------------------------

Stave 4:

E|------------------------------------------------------------------------------------------------------
B|----------------------------------8h9------------------10--8/9----------------------------------------
G|-----------------12/13--12/13----------9--7--9--9p7h9--------------9--7-------------------------------
D|--14p12------12-------------------------------------------------9--------9--8\7-----5--6--7--5--6-----
A|---------14----------------------------------------------------------------------7-----------------7--
E|------------------------------------------------------------------------------------------------------

Stave 5:

E|---------------------------------------------------------------------------------------15h16--
B|-----------------------------------------------------14--12-------------15--17p15--17---------
G|--------------------------------------12b13------14----------13--12/16------------------------
D|---------6--7/9--------14p12--14--12---------14-----------------------------------------------
A|--7p5h7---------------------------------------------------------------------------------------
E|----------------------------------------------------------------------------------------------

Stave 6:

E|--17--17b19r17--19--19--17b19------------------------------------------------------------------------
B|-------------------------------17p15------17--15b17--15--15--14------14--14--13------12--------------
G|--------------------------------------16-------------------------15--------------14------14--12--13--
D|-----------------------------------------------------------------------------------------------------
A|-----------------------------------------------------------------------------------------------------
E|-----------------------------------------------------------------------------------------------------

Stave 7:

E|------------------------------------------------------------------------------------
B|------------------------8b9---------------------------------------------------------
G|------------7-----7--9-------9-----7--7--9-----8/9--7-----7--7----------------------
D|--14p12h14-----9----------------9----------------------9--------9---------7---------
A|-------------------------------------------------------------------10/11-----10--7--
E|------------------------------------------------------------------------------------

Stave 8:

E|-------------------------------------------------------------------------
B|-------------------------------------------------------------------------
G|--8/9--7-----7--9--7--------7h9p7--8/9--7--------------------------------
D|----------9-----------9--7-----------------9--8--7--6-----5--6-----------
A|-------------------------------------------------------7--------7--5--7--
E|-------------------------------------------------------------------------

http://www.guitartabcreator.com
Guitar Tab Creator is intended to store guitar tab created through the tool. It currently does not support in-line text editing. Any text you place in here will be lost. If you need to comment on your tab, please use the "Tab Notes" section located below.