Sound will begin in 5 seconds

new mingle may 28 77 solo 2

01234567891011121314151617181920212223
E
B
G
D
A
E
B
0 1 2 3 4 5 6 7 8 9 10 11 12 13 14 15 16 17 18 19 20 21 22 23
Song Science #1: How Pros Use 6 Chords to Write Hit Songs
(/) Slide Up  (\) Slide Down  (h) Hammer On  (p) Pull Off  (b) Bend (r) Release (v) Vibrato

Stave 1:

E|-------------------------------------------------------------------------------
B|-------------------------------------------------------------------------------
G|-------------------------------------------------------------------------------
D|--9--8--7--5h6-------------5-------7--4/5--5--5-----7/9--8/7--5--5--7/9--------
A|----------------7p5-----------6h7----------------------------------------5--7--
E|------------------------5------------------------5-----------------------------

Stave 2:

E|----------------------------------------------------------------------------10---------------
B|--------------------------------9--------------8b10------------8-----10b12------12r10--8-----
G|--------------------------------------7--8--9--------9p8p7--------9-----------------------9--
D|----------------5/6-----6--7/9-----9------------------------9--------------------------------
A|-------5-----5-------7-----------------------------------------------------------------------
E|--6h7-----7----------------------------------------------------------------------------------

Stave 3:

E|-----------------------------------7---------------------------------------------------------
B|--8--10--12r10-----8--------10b12-----12r10--8-----8b10--------8b10--------------------------
G|----------------9-----9--9----------------------9--------9-----------------------------------
D|---------------------------------------------------------------------9--8--7-----5h6---------
A|------------------------------------------------------------------------------7-------7p5h7--
E|---------------------------------------------------------------------------------------------

Stave 4:

E|--------------------------------------------------------------------------------------
B|--------------------------------------------------------------------------------------
G|-------------------------------8------------------------------------------------------
D|--7--8--9\7--4--6--7-----------------7--9p8p7-----7-----------------------------------
A|----------------------7--8--9-----9------------9-----8h9--8/7------5h6-----5/7--7--5--
E|---------------------------------------------------------------10-------7-------------

Stave 5:

E|-----------------------------------15------12----------------15----------------------------------------
B|----------------------8b10--8--12------15------15b17--15/17------17r15--12------15--12------12---------
G|-------7-----7--8--9--------------------------------------------------------14----------14------12b14--
D|--8/9-----9--------------------------------------------------------------------------------------------
A|-------------------------------------------------------------------------------------------------------
E|-------------------------------------------------------------------------------------------------------

Stave 6:

E|--------------------------------------------------------------------------12-------------12p11p10--
B|--------------------------8/9-----8--9--10/11--12--11--10--8-----8/9--12------15b17--15------------
G|-------------------------------9------------------------------9------------------------------------
D|--14--13------12--13--14---------------------------------------------------------------------------
A|----------14---------------------------------------------------------------------------------------
E|---------------------------------------------------------------------------------------------------

Stave 7:

E|-------------12----------------10--7------------10--7--------------------------------------------------
B|--12--12b14------14r12--10--8---------10--8------------10--8-----8/9----------------------8b10---------
G|---------------------------------------------9----------------9-------9--8--7-----7-------------9\7----
D|-------------------------------------------------------------------------------9-----8h9-------------5/
A|-------------------------------------------------------------------------------------------------------
E|-------------------------------------------------------------------------------------------------------

Stave 8:

E|--9b11r7---------7-----------------------14------17----------------------------------------------------
B|----------10--------8b10----------15b17------17------19--17--16--19--17p16--14p12----------------------
G|--------------9-----------9p7------------------------------------------------------14--11--10--9/8-----
D|-------------------------------9--------------------------------------------------------------------9--
A|-------------------------------------------------------------------------------------------------------
E|-------------------------------------------------------------------------------------------------------

Stave 9:

E|--------------------10--10--10--10------10--10------10--10------10--10------10--10------10--10--10--10--
B|--8/9--------10/12------------------12----------12----------12----------12----------12------------------
G|-------9--9---------------------------------------------------------------------------------------------
D|--------------------------------------------------------------------------------------------------------
A|--------------------------------------------------------------------------------------------------------
E|--------------------------------------------------------------------------------------------------------

Stave 10:

E|--12--14b16--12--14b16--12--19\17--15--17p15------15--17b19--17--15h16-----------------------------
B|----------------------------------------------17------------------------17--15------17--17--17b19--
G|--------------------------------------------------------------------------------16-----------------
D|---------------------------------------------------------------------------------------------------
A|---------------------------------------------------------------------------------------------------
E|---------------------------------------------------------------------------------------------------

Stave 11:

E|--------------------------------------------------------
B|--15------12--------------------------------------------
G|------14------14------12--12--12h13--13-----------------
D|------------------14---------------------14--12--12h14--
A|--------------------------------------------------------
E|--------------------------------------------------------

Stave 12:

E|---------12-------------15--14--12------12-------------------------------------------------------------
B|--12b14------14r12--10--------------15------15--14--13--12------12-------------------------------------
G|------------------------------------------------------------14------14--12------12/13------------------
D|----------------------------------------------------------------------------14---------14--13--12------
A|---------------------------------------------------------------------------------------------------14--
E|-------------------------------------------------------------------------------------------------------

Stave 13:

E|-------------------------------------------------------------------------------------------------------
B|---------------------------------------------------15b17r15--15b17--15b17--12------12--12--10------10--
G|---------------------12--12--12----------12b14---------------------------------14--------------11------
D|--12---------12--14--------------14--14----------------------------------------------------------------
A|------13h14--------------------------------------------------------------------------------------------
E|-------------------------------------------------------------------------------------------------------

Stave 14:

E|--------------------------------------------------------------------
B|--12--------10------------------------------------------------------
G|------9/11------11\9--7h8----------------------------7--------------
D|---------------------------9--9--7-----5h6--------6-----------------
A|------------------------------------7-------7--7--------------------
E|--------------------------------------------------------------------

http://www.guitartabcreator.com
Guitar Tab Creator is intended to store guitar tab created through the tool. It currently does not support in-line text editing. Any text you place in here will be lost. If you need to comment on your tab, please use the "Tab Notes" section located below.