Sound will begin in 5 seconds

new mingle may 28 77

01234567891011121314151617181920212223
E
B
G
D
A
E
B
0 1 2 3 4 5 6 7 8 9 10 11 12 13 14 15 16 17 18 19 20 21 22 23
Song Science #1: How Pros Use 6 Chords to Write Hit Songs
(/) Slide Up  (\) Slide Down  (h) Hammer On  (p) Pull Off  (b) Bend (r) Release (v) Vibrato

Stave 1:

E|-------------------------------------------------------------------------------------
B|-------------------------------------------------------------------------------------
G|--3\2--0--2--1--0--------0-----------------------------------------------------------
D|-------------------1--2-----2-----------5p3--5/7-----7--5h6h7------------------------
A|-------------------------------3--0----------------------------7h5--5/7--7--5/7--7v--
E|--------------------------------------------------5----------------------------------

Stave 2:

E|-------------7-------------------------------------------------------------------------------
B|-------8b10-----10r8--------------------------------------5--7--8--8\7--------5--5-----------
G|----------------------9--7-----7--9p7-----7\6--6-----4/6----------------7--6-----------7--7--
D|--5/7-----------------------9----------9--------------------------------------------9--------
A|---------------------------------------------------------------------------------------------
E|---------------------------------------------------------------------------------------------

Stave 3:

E|------------------10----------------------------10--7---------------------
B|-----------10b12------12r10--8-----10--8---------------10--8b10-----------
G|--9--11p9-----------------------9---------7----------------------9--------
D|---------------------------------------------9----------------------------
A|--------------------------------------------------------------------------
E|--------------------------------------------------------------------------

Stave 4:

E|-------------------------------------------------------------------------------------------
B|-------------------------------------------------------------------------------------------
G|--7h8-----7h8-----7h8--7h8p7------------------------------------------------------------7--
D|-------9-------9--------------9--9--7--5/6-----------------------5h6-----5--6--------6-----
A|--------------------------------------------7--------5--6--7----------7--------7--7--------
E|-----------------------------------------------5--7----------------------------------------

Stave 5:

E|------------5-------9--7-------------------------------------------------12---------12------------------
B|---------5-------------------8-----8-----8--10b12r10--8-----------10b12------10b12------12/11-----8b10--
G|--5h6p5--------6/9--------7-----9-----9------------------9--7--9-------------------------------9--------
D|--------------------------------------------------------------------------------------------------------
A|--------------------------------------------------------------------------------------------------------
E|--------------------------------------------------------------------------------------------------------

Stave 6:

E|------------------------------------9-------------------------------------------------------
B|--8b10r8b10r8--------10p8--------8-----8b10-----6/8--8--8-----------------------------------
G|---------------9-----------9--9--------------9-------------9--9--9--9-------9p7-----7-------
D|-----------------------------------------------------------------------8h9-------9-----8h9--
A|--------------------------------------------------------------------------------------------
E|--------------------------------------------------------------------------------------------

Stave 7:

E|-----------------------------------------------------------------------------------------------
B|---------------------------------------------------------------------------------------10------
G|----------------------------------------------------------------8--------6/8--8--8/11------11--
D|--8\7---------5--6-------------------------------------------------9--9------------------------
A|-------10--7--------7--6--5-----5----------7--5-----5--6--7--9---------------------------------
E|-----------------------------7-----6h7-----------7---------------------------------------------

Stave 8:

E|------------------10h11----------10--11--12------------12----------------------
B|--10--11--12-------------12---------------------12b14------14r12--15--15--17v--
G|--------------11-------------11------------------------------------------------
D|-------------------------------------------------------------------------------
A|-------------------------------------------------------------------------------
E|-------------------------------------------------------------------------------

http://www.guitartabcreator.com
Guitar Tab Creator is intended to store guitar tab created through the tool. It currently does not support in-line text editing. Any text you place in here will be lost. If you need to comment on your tab, please use the "Tab Notes" section located below.