Sound will begin in 5 seconds

mystery train blues! part 2

01234567891011121314151617181920212223
E
B
G
D
A
E
B
0 1 2 3 4 5 6 7 8 9 10 11 12 13 14 15 16 17 18 19 20 21 22 23
Song Science #1: How Pros Use 6 Chords to Write Hit Songs
(/) Slide Up  (\) Slide Down  (h) Hammer On  (p) Pull Off  (b) Bend (r) Release (v) Vibrato

Stave 1:

E|-----------------------------------------------------------------------------------------------
B|--------------------------------------------------------8-----8--8-----8-----------------------
G|-------------------------8/9--7---------9-----7h9p7--------9--------9-----9p7-----9--7h9p7-----
D|--6--------7-----6--7/9----------9p8h9-----9---------9-------------------------9------------9--
A|-----7--7-----7--------------------------------------------------------------------------------
E|-----------------------------------------------------------------------------------------------

Stave 2:

E|------------------------------12---------------12--12-----------------------------------10------10--
B|-------------------------8b9------12\10--8-------------12\10--8--------10-----8--10b12------12------
G|--7-------9-----7--8--9---------------------9--------------------9--9------9------------------------
D|-----8/9-----9--------------------------------------------------------------------------------------
A|----------------------------------------------------------------------------------------------------
E|----------------------------------------------------------------------------------------------------

Stave 3:

E|--10--10---------10--10--10---------10--10--10---------10--10--10---------10--10--10------------------
B|----------10b12--------------10b12--------------10b12--------------10b12--------------12r10--8--------
G|------------------------------------------------------------------------------------------------9--9--
D|------------------------------------------------------------------------------------------------------
A|------------------------------------------------------------------------------------------------------
E|------------------------------------------------------------------------------------------------------

Stave 4:

E|----------------------------------------15--14--12------------------------------------16------------
B|----------------------------------------------------15--14------------------------------------------
G|--12---------14------12-------------------------------------14--16\14--12------14/16------14b16r14--
D|------13h14------14------14--14--14----------------------------------------14-----------------------
A|----------------------------------------------------------------------------------------------------
E|----------------------------------------------------------------------------------------------------

Stave 5:

E|-----------------------------------------------------------------------------------------------------
B|-----------------------------------------------------------------------------------------------------
G|------14--12-------------------------------------------------------------12----------12------12------
D|--14----------14p12------14---------12----------------------------13/14----------14------14------14--
A|---------------------14------13/14------14--12--12--10-----------------------14----------------------
E|--------------------------------------------------------12p10h12-------------------------------------

Stave 6:

E|----------------------------------------------------------------------------------------------
B|----------------------------------------------------------------------------------------------
G|---------12----------14------12h14p12------12-------------------------------------------------
D|--13/14------14--14------14------------14------14p12------13--13/14--12-----------------------
A|------------------------------------------------------14-----------------14--12--10v----------
E|--------------------------------------------------------------------------------------12--12--

Stave 7:

E|--------------------------------------------------------------------------------------------------------
B|--------------------------------------------------------------------------------------------------------
G|--------------------------------------------------------------------------------------------------------
D|-------2--0-------------------------------------------------0--2v--0------------------------------2--0--
A|--1/2--------2--0-----0--1--0-----0--1/2--2--2--2--2--2--0------------1--0-----0--1p0-----0--1/2--------
E|-------------------3-----------3--------------------------------------------3----------3----------------

Stave 8:

E|------------------------------------------------------------------------------------------
B|------------------------------------------------------------------------------------------
G|------------------------------------------------------------------------------------------
D|--0------------------------------------------------------2--0-------0---------------------
A|-----1p0-----0--1p0-----0--1/2-----0--1/2--------0--1/2--------1/2-----1p0-----0-------0--
E|----------3----------3----------3----------3--3-----------------------------3-----3/5-----

Stave 9:

E|------------------------------------------------------------------------------------------------
B|------------------------------------------------------------------------------------------------
G|--7b9r7--5-----5/6--7--5--7b9r7--5-------------------------------------------------9-----8--9v--
D|------------7-----------------------7--5-----7--5--7p5-----5-------7p5-----5--7/9-----9---------
A|------------------------------------------7-------------7-----6h7-------7-----------------------
E|------------------------------------------------------------------------------------------------

Stave 10:

E|-------------------------------------------------------------------------------------------------------
B|----------------------------------------12b14--14--14r12--10------12b14--14--14r12--10------12b14--14--
G|--7-----------------------------------------------------------11------------------------11-------------
D|-----9--8--7b9--7--5-----7-----5--0--------------------------------------------------------------------
A|----------------------7-----7--------------------------------------------------------------------------
E|-------------------------------------------------------------------------------------------------------

Stave 11:

E|-----------------------------------------------------10--------------------------------------------
B|--14r12--10------12b14--12p10--10b12r10--12--12--12------10b12r10--8--10--10--8-----8--------------
G|-------------11------------------------------------------------------------------9-----9--7-----9--
D|---------------------------------------------------------------------------------------------9-----
A|---------------------------------------------------------------------------------------------------
E|---------------------------------------------------------------------------------------------------

Stave 12:

E|------------------------19---------------------------------------------------------------------
B|-----------------------------------------------------------------------------------------------
G|-----7--9--7--7--14b16------16r14--12--12------------------------------------------------------
D|--9----------------------------------------14p12------14--------------5/6--------6-----5/6-----
A|--------------------------------------------------14------10v------6-------7--7-----6-------7--
E|---------------------------------------------------------------12------------------------------

http://www.guitartabcreator.com
Guitar Tab Creator is intended to store guitar tab created through the tool. It currently does not support in-line text editing. Any text you place in here will be lost. If you need to comment on your tab, please use the "Tab Notes" section located below.