Sound will begin in 5 seconds

mystery train blues!

01234567891011121314151617181920212223
E
B
G
D
A
E
B
0 1 2 3 4 5 6 7 8 9 10 11 12 13 14 15 16 17 18 19 20 21 22 23
Song Science #1: How Pros Use 6 Chords to Write Hit Songs
(/) Slide Up  (\) Slide Down  (h) Hammer On  (p) Pull Off  (b) Bend (r) Release (v) Vibrato

Stave 1:

E|---------12----------------------------------------------------------------
B|---------------------------------------------------------------------------
G|--14b16------16r14--12---------14b16--16--16--16--16--16r14--12------------
D|------------------------14---------------------------------------14p12h14--
A|---------------------------------------------------------------------------
E|---------------------------------------------------------------------------

Stave 2:

E|-------------------------------------------------------------------------------------------------
B|---------15--------------------------------------------------------------------------------------
G|--14b16------16--16r14--12--14--14--12------13---------------------------------------------------
D|----------------------------------------14------14p12------14--13/14--12------12-----------------
A|-------------------------------------------------------14-----------------14------14\12--10------
E|---------------------------------------------------------------------------------------------12--

Stave 3:

E|--------------------------------------------------------------------------
B|--------------------------------------------------------------------------
G|---------------------------------7b9--7-------7-------9p7-----7--9b11--9--
D|--8\7--5-----7-----5--7p5-----5----------7/9-----8h9-------9--------------
A|----------7-----7----------7----------------------------------------------
E|--------------------------------------------------------------------------

Stave 4:

E|-----------------------------------------------------------------------------------11--
B|-----------10-----10-----8--10b12r10--10--10--8---------10-----8h10p8-----8------------
G|--7--8--9------9------9--------------------------9\8/9------9----------9-----9/11------
D|---------------------------------------------------------------------------------------
A|---------------------------------------------------------------------------------------
E|---------------------------------------------------------------------------------------

Stave 5:

E|--------------------------------------------------------------------------
B|--------------------------------------------------------------------------
G|--11\9--7h9p7-----7/8-----7/8-----8--9v--7--------------------------------
D|---------------9-------9-------9------------9p7-----7h9p7--5-----------7--
A|-------------------------------------------------9------------5--6--7-----
E|--------------------------------------------------------------------------

Stave 6:

E|------------------------------------------------------------------12------------------12--12--
B|------------------------------------10-----8--10--10b12r10--8---------12p11p10--8-------------
G|----------7-------9-----7--9--7--9------9----------------------9-------------------9----------
D|--5--7/9-----8h9-----9------------------------------------------------------------------------
A|----------------------------------------------------------------------------------------------
E|----------------------------------------------------------------------------------------------

Stave 7:

E|--------------------------------------------------15--15---------12--15---------15---------15--
B|--12p11p10--8--------12b14--12--10---------14b16----------14b16----------14b16------14b16------
G|---------------9--------------------11--9------------------------------------------------------
D|-----------------------------------------------------------------------------------------------
A|-----------------------------------------------------------------------------------------------
E|-----------------------------------------------------------------------------------------------

Stave 8:

E|---------15---------15---------------------------------------------------------------------------------
B|--14b16------14b16------14/17--17--17--15--17p15------17--17--17--17b19r17--15--17p15------17--16--17--
G|--------------------------------------------------16-----------------------------------16--------------
D|-------------------------------------------------------------------------------------------------------
A|-------------------------------------------------------------------------------------------------------
E|-------------------------------------------------------------------------------------------------------

Stave 9:

E|------------------------------------------------------------------------------------------------------
B|--15----------------------------------------------------------------------------------------------14--
G|------16--15--14--14b16--14--12----------14------12--14p12------16--15--14--12--15p14p12------14------
D|---------------------------------14--12------14-------------14----------------------------14----------
A|------------------------------------------------------------------------------------------------------
E|------------------------------------------------------------------------------------------------------

Stave 10:

E|-------------------------------------------------------------------------------------------------------
B|-------------------------------------------------------------------------------------------------------
G|--12b13------------------------------------------------------------------------------------------------
D|---------14--12------14------12--------------------------------------------------------------------12--
A|-----------------14------14------14--13--10--12b14r12--10----------12----------12----------12--14------
E|-----------------------------------------------------------12--12------12--12------12--15--------------

Stave 11:

E|------------------------------------------------------------------------------------------------
B|------------------------------------------------------------------------------------------------
G|---------------------------------12b13----------------------------------------------------------
D|---------14------12--14--12--14---------14p12-------------12-------------12-------------14------
A|--13h14------14--------------------------------14--13h14------14--13h14------14--13h14------14--
E|------------------------------------------------------------------------------------------------

Stave 12:

E|------------------------------------------------------------------------------------------------------
B|------------------------------------------------------------------------------------------------------
G|------------------12b13------14b16------12--14--14b16r14--12--14------12--14p12------12b13------------
D|--12--14--12--14---------14---------14----------------------------14-------------14---------14p12h14--
A|------------------------------------------------------------------------------------------------------
E|------------------------------------------------------------------------------------------------------

Stave 13:

E|---------------------------------------------------------------------------------------------------
B|----------------------------------------------------15---------15----------15----------15------15--
G|--12----------14------12--14b16------14--12--14/16------15/16------16--16------16----------16------
D|------14--14------14-------------14------------------------------------------------17--------------
A|---------------------------------------------------------------------------------------------------
E|---------------------------------------------------------------------------------------------------

Stave 14:

E|----------------------------15---------17b19--17--15-------------17------15--15b17------------------
B|--15b17--17--17--17--15b17------15b17-----------------17--16h17------17-------------17--15------17--
G|--------------------------------------------------------------------------------------------16------
D|----------------------------------------------------------------------------------------------------
A|----------------------------------------------------------------------------------------------------
E|----------------------------------------------------------------------------------------------------

Stave 15:

E|--------------------------------------------------------------------------------------------
B|--17p15------17p16h17--15-------------15------12--------------------------------------------
G|---------16----------------16--14b16------14------16\14--12----------14------12--14p12------
D|-------------------------------------------------------------14--12------14-------------14--
A|--------------------------------------------------------------------------------------------
E|--------------------------------------------------------------------------------------------

Stave 16:

E|-------------------------------------------------------------------------------------------
B|-------------------------------------------------------------------------------------------
G|--12--------------14--12h14p12------12--------------14------12-----------------------------
D|------14--12--------------------14------14--12--14------14------12-------------------------
A|--------------14----------------------------------------------------14\12--10--12--12--10--
E|-------------------------------------------------------------------------------------------

http://www.guitartabcreator.com
Guitar Tab Creator is intended to store guitar tab created through the tool. It currently does not support in-line text editing. Any text you place in here will be lost. If you need to comment on your tab, please use the "Tab Notes" section located below.