Sound will begin in 5 seconds

my funny valentine part 2

01234567891011121314151617181920212223
E
B
G
D
A
E
B
0 1 2 3 4 5 6 7 8 9 10 11 12 13 14 15 16 17 18 19 20 21 22 23
Song Science #1: How Pros Use 6 Chords to Write Hit Songs
(/) Slide Up  (\) Slide Down  (h) Hammer On  (p) Pull Off  (b) Bend (r) Release (v) Vibrato

Stave 1:

E|----------10---------------------------------------------------------------------
B|------11----------11------------8------------------------------------------------
G|--12----------12------12\10--8-----8------8--------------------5-----5--8--7--8--
D|--------------------------------------10-----10p8------8--5/6-----6--------------
A|---------------------------------------------------10----------------------------
E|---------------------------------------------------------------------------------

Stave 2:

E|-----------------------6--5--6--------------------------------------------------
B|--9--8--7--8-----6-----------------8--6-----------------------------------------
G|--------------7-----7--------------------8--8--8p7-----7--------7--8p7--7--8p7--
D|----------------------------------------------------9-----9/10------------------
A|--------------------------------------------------------------------------------
E|--------------------------------------------------------------------------------

Stave 3:

E|--------------------------------------------------------------------------------------
B|------------7--8------7---------------------------------------------------------------
G|--7--8--10--------10-----8--10--7--8------7---------7---------------------------------
D|--------------------------------------10-----8--10-----10--8p7--8p7-------------------
A|---------------------------------------------------------------------10\8--6--8--8p6--
E|--------------------------------------------------------------------------------------

Stave 4:

E|--------------------------------------------------------------------------------------------------
B|--------------------------------------------------------------------------------------------------
G|----------------------------------------------------------------8---------------------------------
D|----------------------------8------10-----8--10b12r10--8---------------------------------6--------
A|--6-------8--6--8/10--9h10-----10-------------------------9h10-----10\8--6h8p6-----6--8-----8/10--
E|-----7h8------------------------------------------------------------------------8-----------------

Stave 5:

E|-----------------------------------------------------------------------------
B|-----------------------------------------------------------------------------
G|-------------------------------3h5p3-----3--4v--3--4--3/4-----4--3/4--4--5v--
D|--8-----------------------4h5---------5--------------------5-----------------
A|-----10\8--6h8-----6v--------------------------------------------------------
E|----------------8------------------------------------------------------------

Stave 6:

E|---------------------------------------------------------------------------------
B|---------------------------------------------------------4----------6-----4h6p4--
G|--3-------5--3-----3--------------------3-------3--4--5-----5--4h5-----5---------
D|-----4h5--------5-----4h5--5p4p3-----5-----4h5-----------------------------------
A|---------------------------------------------------------------------------------
E|---------------------------------------------------------------------------------

Stave 7:

E|--3-----------------------------------------
B|-----6p4------------------------------------
G|----------5p3-------------------------------
D|---------------5\3--1h3--3p1-----1--1p0-----
A|------------------------------3-------------
E|--------------------------------------------

http://www.guitartabcreator.com
Guitar Tab Creator is intended to store guitar tab created through the tool. It currently does not support in-line text editing. Any text you place in here will be lost. If you need to comment on your tab, please use the "Tab Notes" section located below.