Sound will begin in 5 seconds

my funny valentine melody

01234567891011121314151617181920212223
E
B
G
D
A
E
B
0 1 2 3 4 5 6 7 8 9 10 11 12 13 14 15 16 17 18 19 20 21 22 23
Song Science #1: How Pros Use 6 Chords to Write Hit Songs
(/) Slide Up  (\) Slide Down  (h) Hammer On  (p) Pull Off  (b) Bend (r) Release (v) Vibrato

Stave 1:

E|-----------------------------------------------------------6--4--3-----
B|-------3--4--3--4--3----------3--4--3--4--3----------3--4-----------6--
G|--4/5--------------------4/5--------------------4/5--------------------
D|-----------------------------------------------------------------------
A|-----------------------------------------------------------------------
E|-----------------------------------------------------------------------

Stave 2:

E|-----------3-----3-----------------3-----3--------------3--8/10--8--6--5--4-----3--4--6--4-----
B|--4-----6-----6-----6-----4-----6-----6-----6-----4--6--------------------------------------2--
G|-----------------------------------------------------------------------------------------------
D|-----------------------------------------------------------------------------------------------
A|-----------------------------------------------------------------------------------------------
E|-----------------------------------------------------------------------------------------------

Stave 3:

E|--6---------------8-----------------------10--------------------8--8--8--8--8--
B|-----4p3h4--4--3-----4--4--3--4-----4--3------4--4--3--4-----6-----------------
G|-------------------------------------------------------------------------------
D|-------------------------------------------------------------------------------
A|-------------------------------------------------------------------------------
E|-------------------------------------------------------------------------------

Stave 4:

E|--------------------------------3-----3------------8------10------11------10------11------10------8--
B|--------3--4--3--4--3-----4--6-----6-----6-----------------------------------------------------------
G|--5--5-----------------------------------------------------------------------------------------------
D|-----------------------------------------------10-----12------13------12------13------12------10-----
A|-----------------------------------------------------------------------------------------------------
E|-----------------------------------------------------------------------------------------------------

Stave 5:

E|------11-----3--6/7--3--6--4--3-----------------3-----3-----3-----------------3-----------
B|---------------------------------6--4--3--4--6-----6-----6-----4--------3--6-----6--4--3--
G|---------------------------------------------------------------------5--------------------
D|--13--------------------------------------------------------------------------------------
A|------------------------------------------------------------------------------------------
E|------------------------------------------------------------------------------------------

http://www.guitartabcreator.com
Guitar Tab Creator is intended to store guitar tab created through the tool. It currently does not support in-line text editing. Any text you place in here will be lost. If you need to comment on your tab, please use the "Tab Notes" section located below.