Sound will begin in 5 seconds

my funny valentine

01234567891011121314151617181920212223
E
B
G
D
A
E
B
0 1 2 3 4 5 6 7 8 9 10 11 12 13 14 15 16 17 18 19 20 21 22 23
Song Science #1: How Pros Use 6 Chords to Write Hit Songs
(/) Slide Up  (\) Slide Down  (h) Hammer On  (p) Pull Off  (b) Bend (r) Release (v) Vibrato

Stave 1:

E|----------------------------------------------10--11--10--0--0--0--------------
B|--13--11--10--11------10----------10--11--13-----------------------11--12--13--
G|------------------12------11--12-----------------------------------------------
D|-------------------------------------------------------------------------------
A|-------------------------------------------------------------------------------
E|-------------------------------------------------------------------------------

Stave 2:

E|--11--13--11------11--13--15--13--11--13--11------10--11--10----------10------------------
B|--------------13------------------------------13--------------13--11------13--11--10--13--
G|------------------------------------------------------------------------------------------
D|------------------------------------------------------------------------------------------
A|------------------------------------------------------------------------------------------
E|------------------------------------------------------------------------------------------

Stave 3:

E|-----------------------------------------------------------------------------------------------------
B|--13--13---------------------------------------------------------------------------------------------
G|----------11----------11-----------------------------------------------------------------------------
D|--------------12--13------13--11--11--11--9------9--10----------9--8--9--10--9------9--10--9------9--
A|---------------------------------------------11---------11--10------------------10------------10-----
E|-----------------------------------------------------------------------------------------------------

Stave 4:

E|-----------------------------------------------0--0--0--------------------------------
B|--------------------------------11----------------------------------------------------
G|-----------------10---------10-------------10-----------8-----------------------------
D|--------------9----------9--------------9------------------10------8---------8--------
A|--10--10--10---------10-------------10-------------------------10-----9--10-----8--8--
E|--------------------------------------------------------------------------------------

Stave 5:

E|--------------------------------------------------------------------4--3--
B|--------------------------------------------------------4-----3--4--------
G|--------------------------------------------------2--4-----4--------------
D|-----------------5--8--6--7--5--6--5-----5--4--3--------------------------
A|--6--6--5-----------------------------8-----------------------------------
E|-----------6--8-----------------------------------------------------------

Stave 6:

E|--3--3--2--2--3--2-----2------------------------------------------------------------------------------
B|--------------------4-----5--6--7--6--6--4-----4--------6--4--6--4--6--4-----4--------4--6--4---------
G|--------------------------------------------5-----4--5--------------------5-----4--5-----------5--10--
D|------------------------------------------------------------------------------------------------------
A|------------------------------------------------------------------------------------------------------
E|------------------------------------------------------------------------------------------------------

Stave 7:

E|--------------------8--9--10--0--0--8--9--8--
B|---------9--10--11---------------------------
G|--9--10--------------------------------------
D|---------------------------------------------
A|---------------------------------------------
E|---------------------------------------------

Stave 8:

E|--------------------8--9--10--0--0--0--10--11--10----------------------------------------
B|---------9--10--11---------------------------------13--11--13--13--11--9------9--10--11--
G|--9--11-------------------------------------------------------------------10-------------
D|-----------------------------------------------------------------------------------------
A|-----------------------------------------------------------------------------------------
E|-----------------------------------------------------------------------------------------

Stave 9:

E|--------------0--0------------------18--15--16--15----------15------------------------------
B|--11--11--11--------15--16--17--18------------------18--16------18--16--15--18--16------16--
G|------------------------------------------------------------------------------------17------
D|--------------------------------------------------------------------------------------------
A|--------------------------------------------------------------------------------------------
E|--------------------------------------------------------------------------------------------

Stave 10:

E|------------------------------------------------------
B|--15--16--15------------------------------------------
G|--------------17--15------17------15--17--15----------
D|----------------------17------17--------------17--15--
A|------------------------------------------------------
E|------------------------------------------------------

http://www.guitartabcreator.com
Guitar Tab Creator is intended to store guitar tab created through the tool. It currently does not support in-line text editing. Any text you place in here will be lost. If you need to comment on your tab, please use the "Tab Notes" section located below.