Sound will begin in 5 seconds

music never stopped part 3

01234567891011121314151617181920212223
E
B
G
D
A
E
B
0 1 2 3 4 5 6 7 8 9 10 11 12 13 14 15 16 17 18 19 20 21 22 23
Song Science #1: How Pros Use 6 Chords to Write Hit Songs
(/) Slide Up  (\) Slide Down  (h) Hammer On  (p) Pull Off  (b) Bend (r) Release (v) Vibrato

Stave 1:

E|--19b21--21r19--17--15b17--17--15r12------12--15b17--17r15--12------12--
B|--------------------------------------14------------------------14------
G|------------------------------------------------------------------------
D|------------------------------------------------------------------------
A|------------------------------------------------------------------------
E|------------------------------------------------------------------------

Stave 2:

E|-----------10--12---------7--10--7-------------------------------------------
B|--12v--12----------10b12------------10h8-----8--10b12--12r10--8--------------
G|------------------------------------------9----------------------9--7-----7--
D|-----------------------------------------------------------------------9-----
A|-----------------------------------------------------------------------------
E|-----------------------------------------------------------------------------

Stave 3:

E|--------------------------12--10v--7---------10--7----------------------------------
B|----------------8--10b12--------------10b12---------10b12r10--8--10h8-----8--10b12--
G|-------7--8--9---------------------------------------------------------9------------
D|--8h9-------------------------------------------------------------------------------
A|------------------------------------------------------------------------------------
E|------------------------------------------------------------------------------------

Stave 4:

E|-----------------------------------------------------------------------
B|--12r10--8----------------10b12--10b12r10--10b12r10--8-----------------
G|------------9p7-----7--9--------------------------------9-----7--8--9--
D|-----------------9-----------------------------------------9-----------
A|-----------------------------------------------------------------------
E|-----------------------------------------------------------------------

Stave 5:

E|--------------------------------------------------------------------
B|--8/9-----8/9-----8/9-----8/9--10b12r10--10--8--10--10b12r10--8-----
G|-------9-------9-------9-----------------------------------------9--
D|--------------------------------------------------------------------
A|--------------------------------------------------------------------
E|--------------------------------------------------------------------

Stave 6:

E|--12--12--12---------------12--12--12--11v------------------------------------------------------
B|--------------11\10--8----------------------12p11p10--8---------10--11--12--11--10------8/9-----
G|------------------------9--------------------------------9--12----------------------12-------9--
D|------------------------------------------------------------------------------------------------
A|------------------------------------------------------------------------------------------------
E|------------------------------------------------------------------------------------------------

Stave 7:

E|---------------------------------------------------------------------------------------------
B|-----------------------------------------------------------------------12h13p12--------------
G|--------------------------12h13------12--13--14b16r14--12--14--12--14------------14--12------
D|--------------12--13--14---------14------------------------------------------------------14--
A|--12--13--14---------------------------------------------------------------------------------
E|---------------------------------------------------------------------------------------------

Stave 8:

E|-----------------------------------------------------------------------------------------------------
B|-------------15------15--17------15--15------15--17------15--15------15--17------15--15------17--17--
G|--12--14/16------16----------16----------16----------16----------16----------16----------16----------
D|-----------------------------------------------------------------------------------------------------
A|-----------------------------------------------------------------------------------------------------
E|-----------------------------------------------------------------------------------------------------

Stave 9:

E|------15/16--------------15/16--------------15--16--17--16--17--16--17b19--17--15------15h16--
B|--17---------17--17--17---------17--17--17-----------------------------------------17---------
G|----------------------------------------------------------------------------------------------
D|----------------------------------------------------------------------------------------------
A|----------------------------------------------------------------------------------------------
E|----------------------------------------------------------------------------------------------

Stave 10:

E|------15/16--17-------------15--16--17--15h16------------------------------------------------------
B|--17-------------17-----17---------------------17--15------15--------------------------------------
G|-------------------------------------------------------16------16\14--14b16r14--12------12--14b16--
D|------------------------------------------------------------------------------------14-------------
A|---------------------------------------------------------------------------------------------------
E|---------------------------------------------------------------------------------------------------

Stave 11:

E|----------------------------------------------------------------------------------------
B|---------12--15--12------12---------12------------------------12------------------------
G|--14b16--------------14------14b16------16r12------12--14b16------16r14--12------12h14--
D|-----------------------------------------------14----------------------------14---------
A|----------------------------------------------------------------------------------------
E|----------------------------------------------------------------------------------------

Stave 12:

E|--------------------------------------------------------------------------------------------------------
B|--------------------------------------------------------------------------------12--13------12------12--
G|------12-------------------------------------12/13------12--13--14--12--13--14----------14------14------
D|--14------14--13--12------12------12--13/14---------14--------------------------------------------------
A|----------------------14------14------------------------------------------------------------------------
E|--------------------------------------------------------------------------------------------------------

Stave 13:

E|----------------------------------------------------------------------------
B|--10--8-----8--10--11--12--11--10--8-----8--10p8--8/9-----8-----------------
G|---------9----------------------------9----------------9-----9--------------
D|----------------------------------------------------------------11------10--
A|--------------------------------------------------------------------12------
E|----------------------------------------------------------------------------

Stave 14:

E|-------------------------------------------------10------10--11--12--15h16-------------------------
B|--------------------------------8/9-----8--9/12------12---------------------17--15------15h17--17--
G|-------7-------9-------7--9--9-------9----------------------------------------------16-------------
D|--7/9-----8h9-----8h9------------------------------------------------------------------------------
A|---------------------------------------------------------------------------------------------------
E|---------------------------------------------------------------------------------------------------

Stave 15:

E|---------------------------------------------------------------------
B|------15--17------15--15--15b17--14--14------13--13------13--13------
G|--16----------16-------------------------14----------14----------14--
D|---------------------------------------------------------------------
A|---------------------------------------------------------------------
E|---------------------------------------------------------------------

Stave 16:

E|-----------------------------------------------------------------------------------------
B|--12--12---------15------15--17--17------15--14----------14------13--13------13--13--12--
G|----------13/16------16--------------16----------14--14------14----------14--------------
D|-----------------------------------------------------------------------------------------
A|-----------------------------------------------------------------------------------------
E|-----------------------------------------------------------------------------------------

Stave 17:

E|-----------------------------------------------------------------------------------------------
B|---------15--15------17--17------15--15------14------14------13--13------13--12----------------
G|--13/16----------16----------16----------16------14------14----------14----------14--13h14p13--
D|-----------------------------------------------------------------------------------------------
A|-----------------------------------------------------------------------------------------------
E|-----------------------------------------------------------------------------------------------

Stave 18:

E|---------------------------------------------------------------------------------------------
B|---------15------15--15--17------15--15-----15--15\14------14--14\13------13--13\12------12--
G|--13/16------16--------------16------------------------15-------------14-------------13------
D|---------------------------------------------------------------------------------------------
A|---------------------------------------------------------------------------------------------
E|---------------------------------------------------------------------------------------------

Stave 19:

E|----------------------------12--12-----------------12--12-----------------12--12--12-------------
B|--12--12-----------------------------------------------------------------------------------------
G|----------14p13------12h13----------15\14--12--------------15\14--12------------------15\14--12--
D|-----------------14----------------------------14---------------------14-------------------------
A|-------------------------------------------------------------------------------------------------
E|-------------------------------------------------------------------------------------------------

Stave 20:

E|--12--12--12-----------------12v-----------------12--12-----------------12--12-----------------
B|-----------------------------------------------------------------------------------------------
G|--------------15\14--12-----------15\14--12--------------15\14--12--------------15\14--12------
D|-------------------------14------------------14---------------------14---------------------14--
A|-----------------------------------------------------------------------------------------------
E|-----------------------------------------------------------------------------------------------

Stave 21:

E|--12--12-----------------12--12-----------------12--12-----------------12--12-----------------
B|----------------------------------------------------------------------------------------------
G|----------15\14--12--------------15\14--12--------------15\14--12--------------15\14--12------
D|---------------------14---------------------14---------------------14---------------------14--
A|----------------------------------------------------------------------------------------------
E|----------------------------------------------------------------------------------------------

Stave 22:

E|--12--12-----------------12--12----------------------------------------12--12---------------------
B|------------------------------------------------15--12--------------------------------------------
G|----------15\14--12--------------15\14--12--------------15\14--12--------------15\14--12----------
D|---------------------14---------------------14---------------------14---------------------14--14--
A|--------------------------------------------------------------------------------------------------
E|--------------------------------------------------------------------------------------------------

Stave 23:

E|--12--12----------------------------------------12--------------------------------
B|-------------------------15--12---------------------14p12------12-----------------
G|----------15\14--12--------------15\14--12-----------------14------15\14--12------
D|---------------------14---------------------14--------------------------------14--
A|----------------------------------------------------------------------------------
E|----------------------------------------------------------------------------------

Stave 24:

E|----------------------------------------------------
B|--13--12-----------------15------17p15------17--17--
G|----------14--12--14/16------16---------16----------
D|----------------------------------------------------
A|----------------------------------------------------
E|----------------------------------------------------

http://www.guitartabcreator.com
Guitar Tab Creator is intended to store guitar tab created through the tool. It currently does not support in-line text editing. Any text you place in here will be lost. If you need to comment on your tab, please use the "Tab Notes" section located below.