Sound will begin in 5 seconds

music never stopped assembley center baton rouge 10/16/77 Part 2

01234567891011121314151617181920212223
E
B
G
D
A
E
B
0 1 2 3 4 5 6 7 8 9 10 11 12 13 14 15 16 17 18 19 20 21 22 23
Song Science #1: How Pros Use 6 Chords to Write Hit Songs
(/) Slide Up  (\) Slide Down  (h) Hammer On  (p) Pull Off  (b) Bend (r) Release (v) Vibrato

Stave 1:

E|---------------------------------------------9-------------------------------------
B|------------------9--10p9---------9--10--12-----12--12--10p9------9---------9--12--
G|--8--9--8--9--11-----------11--9------------------------------11-----9--11---------
D|-----------------------------------------------------------------------------------
A|-----------------------------------------------------------------------------------
E|-----------------------------------------------------------------------------------

Stave 2:

E|--------------14--16------14--------------------------------------
B|--14--16--17----------17------16--17--17--16--14------14--16--17--
G|--------------------------------------------------16--------------
D|------------------------------------------------------------------
A|------------------------------------------------------------------
E|------------------------------------------------------------------

Stave 3:

E|--------------16------16--17--19--17--16------17--16----------16--------------
B|--16--17--19------19----------------------19----------19--17------19--17--16--
G|------------------------------------------------------------------------------
D|------------------------------------------------------------------------------
A|------------------------------------------------------------------------------
E|------------------------------------------------------------------------------

Stave 4:

E|--------------------------------------------------------------------------------7--9v--
B|--19--17--16------17--16----------16-------------------------------7h9--7--7h9---------
G|--------------18----------18--16------18--16------16------------8----------------------
D|----------------------------------------------18------16h18----------------------------
A|---------------------------------------------------------------------------------------
E|---------------------------------------------------------------------------------------

Stave 5:

E|----------11--11p12p11--11--------------11------11p12p11------11--12--14--12--11-------------------
B|--12--14--------------------14--12--14------14------------14----------------------14--12--14--12v--
G|---------------------------------------------------------------------------------------------------
D|---------------------------------------------------------------------------------------------------
A|---------------------------------------------------------------------------------------------------
E|---------------------------------------------------------------------------------------------------

Stave 6:

E|--------------------------------9------------------9--11--12--11--12--14--------------
B|--12--12--10--9--10--9--10--12-----10--12--10--12-------------------------14--12------
G|----------------------------------------------------------------------------------13--
D|--------------------------------------------------------------------------------------
A|--------------------------------------------------------------------------------------
E|--------------------------------------------------------------------------------------

Stave 7:

E|------11------11--12--14--16------16--17------16--17--18--19--
B|--14------14------------------19----------19------------------
G|--------------------------------------------------------------
D|--------------------------------------------------------------
A|--------------------------------------------------------------
E|--------------------------------------------------------------

Stave 8:

E|--19--17--16------17--16----------16--------------------------------------------------
B|--------------19----------19--17------19--17--16--19--17--16------17--16--------------
G|--------------------------------------------------------------18----------18--17--16--
D|--------------------------------------------------------------------------------------
A|--------------------------------------------------------------------------------------
E|--------------------------------------------------------------------------------------

Stave 9:

E|--19--17--16------17--16----------16----------16--17------16----------16--17------16--
B|--------------19----------19--17------17--19----------19------17--19----------19------
G|--------------------------------------------------------------------------------------
D|--------------------------------------------------------------------------------------
A|--------------------------------------------------------------------------------------
E|--------------------------------------------------------------------------------------

Stave 10:

E|--19--17--16------17--16----------16--------------------------------------------------
B|--------------19----------19--17------19--17--16--19--17--16------16--17--16--17--19--
G|--------------------------------------------------------------18----------------------
D|--------------------------------------------------------------------------------------
A|--------------------------------------------------------------------------------------
E|--------------------------------------------------------------------------------------

Stave 11:

E|------------------------------------------------------------------------------------------
B|--19p18p17p16--17--16--16p17p16------14v--------------------------------------------------
G|---------------------------------16-----------14p16p14------14h16--16--16p14------14--16--
D|------------------------------------------16------------16--------------------16----------
A|------------------------------------------------------------------------------------------
E|------------------------------------------------------------------------------------------

Stave 12:

E|--------------------------------------------------------------------------------------------------
B|--------------------------------------------------------------------------------------------------
G|------14--16------14h16p14------14--16------14h16p14--14h16p14--------------14h16p14------14--16--
D|--16----------16------------16----------16----------------------16--14--16------------16----------
A|--------------------------------------------------------------------------------------------------
E|--------------------------------------------------------------------------------------------------

Stave 13:

E|---------------------------------------------------------------------------------
B|-------------------------------------------------------------------------14------
G|--14------14h16p14--------------14--16------14------14h16p14------14h16------16--
D|------16------------16--14--16----------16------16------------16-----------------
A|---------------------------------------------------------------------------------
E|---------------------------------------------------------------------------------

Stave 14:

E|-------------------------------------------------------------------------
B|----------14------14--16-----------------------------------------14--16--
G|--14--16------16-------------14h16p14------14h16p14------14--16----------
D|---------------------------------------16------------16------------------
A|-------------------------------------------------------------------------
E|-------------------------------------------------------------------------

Stave 15:

E|----------------------------------14--15--16------
B|------14--16--17--16--14--16--17--------------17--
G|--17----------------------------------------------
D|--------------------------------------------------
A|--------------------------------------------------
E|--------------------------------------------------

http://www.guitartabcreator.com
Guitar Tab Creator is intended to store guitar tab created through the tool. It currently does not support in-line text editing. Any text you place in here will be lost. If you need to comment on your tab, please use the "Tab Notes" section located below.