Sound will begin in 5 seconds

music never stopped assembley center baton rouge 10/16/77 intro and verse solos

01234567891011121314151617181920212223
E
B
G
D
A
E
B
0 1 2 3 4 5 6 7 8 9 10 11 12 13 14 15 16 17 18 19 20 21 22 23
Song Science #1: How Pros Use 6 Chords to Write Hit Songs
(/) Slide Up  (\) Slide Down  (h) Hammer On  (p) Pull Off  (b) Bend (r) Release (v) Vibrato

Stave 1:

E|--17--14--15--16-------------------------------------------------------------------------------
B|------------------17--15-----------------------------------------------------------------------
G|--------------------------16--14--12h13--14--12h13---------------------------------------------
D|----------------------------------------------------14--13--12------12---------12--14--13--12--
A|----------------------------------------------------------------14------13h14------------------
E|-----------------------------------------------------------------------------------------------

Stave 2:

E|------------------------------------------------------------------------------------------------
B|------------------------------------------------------------------------------------------------
G|----------------------------------------------14------12--16r14--12----------12h13--------------
D|--------------------------------------12--14------14-----------------14--12---------14--13--12--
A|--14--13--12--11----------12--13--14------------------------------------------------------------
E|------------------12--10------------------------------------------------------------------------

Stave 3:

E|-----------------
B|-----------------
G|-----------------
D|-----------------
A|--14\12--10------
E|-------------12--

Stave 4:

E|--16--19--17--16------16------------------------------------------------------------------------------
B|------------------19------19--17--19----------17------------------------------------------17--19--17--
G|--------------------------------------19--18------19--18--19------16--18------16--18--19--------------
D|--------------------------------------------------------------19----------19--------------------------
A|------------------------------------------------------------------------------------------------------
E|------------------------------------------------------------------------------------------------------

Stave 5:

E|--------------------------------------------------12--13p12------12--13p12-----------------------------
B|------17----------17-----------------------------------------15-------------15---------15--------------
G|--19------18--19------18------16----------16--14--------------------------------15h16------16--15--12--
D|--------------------------19------18--19---------------------------------------------------------------
A|-------------------------------------------------------------------------------------------------------
E|-------------------------------------------------------------------------------------------------------

Stave 6:

E|----------------------------------------------------------------------------
B|-------------------10-------------------------------------------------------
G|---------9h10--11---------11--10--9--9--------------------------------------
D|--10h11---------------------------------10h11--10\9--7-----7--9p7--6--------
A|--------------------------------------------------------9-------------9--7--
E|----------------------------------------------------------------------------

Stave 7:

E|---------------------------------------------------------------14--15--16--17p16p15--
B|-------------------------------------------8/9--9v--11/12--15------------------------
G|-------------------------7--------7--8--9--------------------------------------------
D|-----------6-----6--8/9-----8--9-----------------------------------------------------
A|--7--7--7-----7----------------------------------------------------------------------
E|-------------------------------------------------------------------------------------

Stave 8:

E|----------------------------------9--10--12--14p12-----12----------12-----17--16--17--18--19--
B|--------------------7--9--10--12---------------------------14--15-----------------------------
G|--------6--7--8--9----------------------------------------------------------------------------
D|--7--9----------------------------------------------------------------------------------------
A|----------------------------------------------------------------------------------------------
E|----------------------------------------------------------------------------------------------

Stave 9:

E|--16--17------16----------16---------17----------------------------------------------
B|----------19------17--19------17h18------18-----------------------12--12-------------
G|---------------------------------------------18b20r18--16--14b16----------12--10/11--
D|-------------------------------------------------------------------------------------
A|-------------------------------------------------------------------------------------
E|-------------------------------------------------------------------------------------

Stave 10:

E|---------------------------------------------------------------------------------
B|-------------10--13--13--12--11--10--12--10------10------------------------------
G|------9--10----------------------------------11------11--10--9-------------------
D|--11------------------------------------------------------------11--10--9--7-----
A|------------------------------------------------------------------------------9--
E|---------------------------------------------------------------------------------

Stave 11:

E|--------------------------------------------10--10--11--12p11p10--
B|--------------------------8--9--------9/12------------------------
G|-----------------7--7--9--------9--9------------------------------
D|--------7--7--9---------------------------------------------------
A|--7--9------------------------------------------------------------
E|------------------------------------------------------------------

http://www.guitartabcreator.com
Guitar Tab Creator is intended to store guitar tab created through the tool. It currently does not support in-line text editing. Any text you place in here will be lost. If you need to comment on your tab, please use the "Tab Notes" section located below.