Sound will begin in 5 seconds

music never stopped assembley center baton rouge 10/16/77

01234567891011121314151617181920212223
E
B
G
D
A
E
B
0 1 2 3 4 5 6 7 8 9 10 11 12 13 14 15 16 17 18 19 20 21 22 23
Song Science #1: How Pros Use 6 Chords to Write Hit Songs
(/) Slide Up  (\) Slide Down  (h) Hammer On  (p) Pull Off  (b) Bend (r) Release (v) Vibrato

Stave 1:

E|------------------------------11-----9--8--7------8--7---------7------------
B|------------9--10------9--10------------------10--------10--9-----10--9--7--
G|-----8--11---------11-------------------------------------------------------
D|--9-------------------------------------------------------------------------
A|----------------------------------------------------------------------------
E|----------------------------------------------------------------------------

Stave 2:

E|-----------------------------------------------------------------------------
B|--9--10--9--7-----7--9--7---------------------------------------10p9---------
G|---------------9-----------9--8-----------------------8--9--11--------9--11--
D|-----------------------------------------------9--11-------------------------
A|------------------------------------9--11--12--------------------------------
E|-----------------------------------------------------------------------------

Stave 3:

E|------------------------------------------------------------------------------
B|-------------------------------------------10--9-------------------9--10--12--
G|--8--9--11--8--------------------8--9--11---------9--11--8--9--11-------------
D|---------------9--11------9--11-----------------------------------------------
A|----------------------12------------------------------------------------------
E|------------------------------------------------------------------------------

Stave 4:

E|--------------------------------------------------------------------8h9--9--
B|--14p12------12----------12v-----12--10--9------9---------9-----------------
G|---------13------13--14---------------------11-----9--11--------------------
D|-------------------------------------------------------------10h11----------
A|----------------------------------------------------------------------------
E|----------------------------------------------------------------------------

Stave 5:

E|--9--11--12--11--9------------------------------------------------------------
B|--------------------12--10--9--10--12--10--9-------------9--10--9-------------
G|----------------------------------------------11--9--11------------11--9--11--
D|------------------------------------------------------------------------------
A|------------------------------------------------------------------------------
E|------------------------------------------------------------------------------

Stave 6:

E|---------------------------------------------------------------------4--5p4--
B|--9-----------------------------------------------7-----/7--4--5--7----------
G|-----11--9\8---------------8--9-------------8--9-----------------------------
D|--------------9-----9--11--------11--9--11-----------------------------------
A|-----------------------------------------------------------------------------
E|-----------------------------------------------------------------------------

Stave 7:

E|--4p5p4-----------4---------------7--9--11----------11--12--14--11--12--14--
B|---------7--4--5-----5--7--9--10------------12--14--------------------------
G|----------------------------------------------------------------------------
D|----------------------------------------------------------------------------
A|----------------------------------------------------------------------------
E|----------------------------------------------------------------------------

Stave 8:

E|--16--17--16p14------14--12--11--------------12--11----------11--9--9--------------------
B|-----------------16--------------14--12--14----------14--12------------12---------11/12--
G|---------------------------------------------------------------------------10/11---------
D|-----------------------------------------------------------------------------------------
A|-----------------------------------------------------------------------------------------
E|-----------------------------------------------------------------------------------------

Stave 9:

E|------------------------------------------------------------------------------
B|--12--10--9------10--9---------9----------------------------------------------
G|-------------11---------11--9-----11--9--8--11--9--8------8---------8--9--11--
D|------------------------------------------------------11-----9--11------------
A|------------------------------------------------------------------------------
E|------------------------------------------------------------------------------

Stave 10:

E|----------------------------------------------------------------------------------------------
B|--9--10p9---------9-----------------------------------------9--10p9-------------9------9--10--
G|-----------11--9-----11--9--8------9\8------8-----8--9--11-----------11--9--11-----11---------
D|-------------------------------11-------11-----9----------------------------------------------
A|----------------------------------------------------------------------------------------------
E|----------------------------------------------------------------------------------------------

Stave 11:

E|--------------------9------11--12--14--11--12--14--16--17--16v--14------14------
B|--9--10--11--11/12-----12-------------------------------------------16------16--
G|--------------------------------------------------------------------------------
D|--------------------------------------------------------------------------------
A|--------------------------------------------------------------------------------
E|--------------------------------------------------------------------------------

Stave 12:

E|--17--16--14------16--14----------14--16v--14------14------17--16--14------16--
B|--------------17----------17--16---------------16------16--------------17------
G|-------------------------------------------------------------------------------
D|-------------------------------------------------------------------------------
A|-------------------------------------------------------------------------------
E|-------------------------------------------------------------------------------

Stave 13:

E|--14----------14--16v--14------14------17--16--14------16--14------14--------------
B|------17--16---------------16------16--------------17----------17------17--16--14--
G|-----------------------------------------------------------------------------------
D|-----------------------------------------------------------------------------------
A|-----------------------------------------------------------------------------------
E|-----------------------------------------------------------------------------------

Stave 14:

E|------------------------------16--14----------------------------------------------
B|--17--16--14------14--15--16----------16--15--14----------------------------------
G|--------------16----------------------------------16--15--14----------------------
D|--------------------------------------------------------------16--15--14--13------
A|------------------------------------------------------------------------------14--
E|----------------------------------------------------------------------------------

http://www.guitartabcreator.com
Guitar Tab Creator is intended to store guitar tab created through the tool. It currently does not support in-line text editing. Any text you place in here will be lost. If you need to comment on your tab, please use the "Tab Notes" section located below.