Sound will begin in 5 seconds

morning dew solo 2 dec 2 73 part 2

01234567891011121314151617181920212223
E
B
G
D
A
E
B
0 1 2 3 4 5 6 7 8 9 10 11 12 13 14 15 16 17 18 19 20 21 22 23
Song Science #1: How Pros Use 6 Chords to Write Hit Songs
(/) Slide Up  (\) Slide Down  (h) Hammer On  (p) Pull Off  (b) Bend (r) Release (v) Vibrato

Stave 1:

E|--13---------13--13p12----------12-------------------------------------------------------
B|---------15-------------15--13------15b17--15--13--13--15p13--15b17----------13--14--15--
G|---------------------------------------------------------------------12--14--------------
D|-----------------------------------------------------------------------------------------
A|-----------------------------------------------------------------------------------------
E|-----------------------------------------------------------------------------------------

Stave 2:

E|------------------------------------------------------------------------------------
B|--13------13--14--15------------10---------10---------10----------------------------
G|------14-----------------12b14------11h12------10/11------9/11\9--7-----------7-----
D|---------------------------------------------------------------------9--7--9-----9--
A|------------------------------------------------------------------------------------
E|------------------------------------------------------------------------------------

Stave 3:

E|--------------------------------------------------------------------------------------------
B|--------------------------------------------------------------------------------------------
G|--5----------7--------5--5--------5-------7-------------------------------------------------
D|-----7p5--7--------7--------7--------7p5----------------------------------------------------
A|--------------------------------------------------------3--3--5--7--5--3--------3--3-----3--
E|------------------------------------------------1--3/5--------------------3--5--------5-----

Stave 4:

E|-----------------------------------------------------------------------
B|-----------------------------------------------------------7-----------
G|-----------------------------7-------------5--5--5/7--5/7-----5--5--7--
D|----------2------------------------5--5/7------------------------------
A|--2--2/3-----3--3/5-----7/9-----7--------------------------------------
E|-----------------------------------------------------------------------

Stave 5:

E|--------5-----------------10/9----------------10\9----------------10--------------------------
B|-----6----------------10--------9---------10--------9---------10------13--11--10------10------
G|--5---------------10---------------9--10---------------9--10----------------------10------10--
D|--------------12------------------------------------------------------------------------------
A|----------------------------------------------------------------------------------------------
E|----------------------------------------------------------------------------------------------

Stave 6:

E|---------------------------------------------------------------------------14------14---------14--
B|----------10---------8---------8--10p8-----------10-----8-----------------------------------------
G|------10----------9---------9-----------8/9--10------9-----7--7-----12/14------14------13/14------
D|--10----------10--------10------------------------------------------------------------------------
A|--------------------------------------------------------------------------------------------------
E|--------------------------------------------------------------------------------------------------

Stave 7:

E|---------14---------14---------14------15--14------------13--13--15b17--17r15--13------------
B|-----------------------------------------------------------------------------------15b17r15--
G|--13/14------13/14------13/14------14-------------12/14--------------------------------------
D|---------------------------------------------------------------------------------------------
A|---------------------------------------------------------------------------------------------
E|---------------------------------------------------------------------------------------------

Stave 8:

E|----------------------------------------------------------------------14--
B|--15--13--15--15p13p12h13--12----------12--12--13p12----------------------
G|-------------------------------12--14-----------------14--12--13--14------
D|--------------------------------------------------------------------------
A|--------------------------------------------------------------------------
E|--------------------------------------------------------------------------

Stave 9:

E|------------------------------------------------------------------------------------------------
B|------------------------------------------------------------------------------------------------
G|--7b9-------7--5--5--5h7----------5-------5-------7p5-----5-------------------------------------
D|-------7/9-------------------6/7-----5h7-----6h7-------7-----7\5--------------------------------
A|-----------------------------------------------------------------------------3-----3h5p3--------
E|------------------------------------------------------------------------3/5-----5---------5--3--

Stave 10:

E|-----------------------------------------------------------------------------------------
B|------------------------------------------------------------------------5-----5--6p5-----
G|-------------------------------5----------------5---------5-----5h7--7-----7----------7--
D|--------3-----3--5--3--3--5/7-----7\5--5--5--------7p5h7-----7---------------------------
A|--3--5-----5-----------------------------------------------------------------------------
E|-----------------------------------------------------------------------------------------

Stave 11:

E|---------------------------------10-----12---------10-------------------------------------------
B|--------------------------------------------12h13------12p10------10--12b14--14--14r12------10--
G|--7--7p5-----5--7p5-----5--7/11-------------------------------11------------------------11------
D|----------7----------7--------------------------------------------------------------------------
A|------------------------------------------------------------------------------------------------
E|------------------------------------------------------------------------------------------------

Stave 12:

E|------------------------------------------------------------------------------------------------------
B|------10----------------------------------------------------------------------------------------------
G|--12------12p10------12------10--12--12b14--14--14r12--10--12------10--12------10---------------------
D|-----------------12------12------------------------------------12----------12------12p10------12------
A|------------------------------------------------------------------------------------------12------12--
E|------------------------------------------------------------------------------------------------------

Stave 13:

E|--------------------------------------------------------------------------
B|--------------------------------------------------------------------------
G|--------------------------------------------------------------------------
D|--10---------12------10--------------------------------10---------10--12--
A|------11h12------12------12\10--8--10--8--------11/12------11h12----------
E|--------------------------------------------------------------------------

Stave 14:

E|-------------------------------------------------------------------------------
B|---------------------------------------------------13--13p12--13--15p13p12h13--
G|----------------10---------10--14r12p10--12b14r12------------------------------
D|--10--12p11h12------11h12------------------------------------------------------
A|-------------------------------------------------------------------------------
E|-------------------------------------------------------------------------------

Stave 15:

E|----------------------------------------------17------17---------------------------------------
B|--13p12h13--15p13p12h13--15b17--15-----17b19------19------19r17--15--17--17p15------15--15\13--
G|--------------------------------------------------------------------------------16-------------
D|-----------------------------------------------------------------------------------------------
A|-----------------------------------------------------------------------------------------------
E|-----------------------------------------------------------------------------------------------

Stave 16:

E|------------------------------------------------------------------------------------------10------------
B|--13--13-----13--13p12--13--------------------13--------------------------------------------------------
G|----------------------------14\12--10--12b14------12--12b14r12--10--12--12p10------10/11------13p12p10--
D|-------------------------------------------------------------------------------12-----------------------
A|--------------------------------------------------------------------------------------------------------
E|--------------------------------------------------------------------------------------------------------

Stave 17:

E|--------------------------------------
B|--------------------------------------
G|------10------------------------------
D|--12------12p10------10h12p10--12/15--
A|-----------------12-------------------
E|--------------------------------------

http://www.guitartabcreator.com
Guitar Tab Creator is intended to store guitar tab created through the tool. It currently does not support in-line text editing. Any text you place in here will be lost. If you need to comment on your tab, please use the "Tab Notes" section located below.