Sound will begin in 5 seconds

morning dew solo 2 dec 2 73

01234567891011121314151617181920212223
E
B
G
D
A
E
B
0 1 2 3 4 5 6 7 8 9 10 11 12 13 14 15 16 17 18 19 20 21 22 23
Song Science #1: How Pros Use 6 Chords to Write Hit Songs
(/) Slide Up  (\) Slide Down  (h) Hammer On  (p) Pull Off  (b) Bend (r) Release (v) Vibrato

Stave 1:

E|-----------------------------12--12-----------------------------------------------------------------
B|--17--19r17--15--15--15--15----------13p12h13--12--13--12-----15b17--15-----------------------------
G|-------------------------------------------------------------------------14--12p11------11----------
D|------------------------------------------------------------------------------------14------14--12--
A|----------------------------------------------------------------------------------------------------
E|----------------------------------------------------------------------------------------------------

Stave 2:

E|-----------------------------------------------------------------------------------------------
B|-----------------------------------------------6--------------8---------8----------------------
G|-----------------------------------------------------------------10--9-----9-------------9--7--
D|--12--12--10--9h10--10--9-------------------7-------------------------------------7--10--------
A|---------------------------12--10--9--8--8--------8--8--8---------------------10---------------
E|-----------------------------------------------------------------------------------------------

Stave 3:

E|------------------------------------------------------------------------10--12--13--14--12--10--
B|--12/13--12--------------12--15--12--15--15--15-----15--15--15--15--12--------------------------
G|-------------14------12-------------------------------------------------------------------------
D|-----------------14-----------------------------------------------------------------------------
A|------------------------------------------------------------------------------------------------
E|------------------------------------------------------------------------------------------------

Stave 4:

E|----------10--------------------------------------------15--13--15/17--15--13--12--12b13--
B|--12--10------13--10--------------------------------13------------------------------------
G|----------------------12--11h12--14------12--13/14----------------------------------------
D|-------------------------------------14---------------------------------------------------
A|------------------------------------------------------------------------------------------
E|------------------------------------------------------------------------------------------

Stave 5:

E|--14r12------12--12--10----------12--14r12--10----------10-------------------------------------
B|---------13--------------13--12-----------------12--13---------15--15p13p12--13--15p13p12--13--
G|-----------------------------------------------------------------------------------------------
D|-----------------------------------------------------------------------------------------------
A|-----------------------------------------------------------------------------------------------
E|-----------------------------------------------------------------------------------------------

Stave 6:

E|------------------------------------------------------------------------------------
B|--15--15p13p12--13--15p13p12--13--13--15p13p12--13--15p13p12--13--15p13p12--13--15--
G|------------------------------------------------------------------------------------
D|------------------------------------------------------------------------------------
A|------------------------------------------------------------------------------------
E|------------------------------------------------------------------------------------

Stave 7:

E|--------------------12--13--13------12------12--13---------12--13------12--13--12------12--
B|-------------12h13--------------15------15-------------15----------15--------------15------
G|--12--13h14--------------------------------------------------------------------------------
D|-------------------------------------------------------------------------------------------
A|-------------------------------------------------------------------------------------------
E|-------------------------------------------------------------------------------------------

Stave 8:

E|--12----------12----------12-------------------------------------------------------------------------
B|------15--13------15--13------15--13--12--15--13--12------13--12----------12-------------------------
G|------------------------------------------------------14----------14--12------14--12--11--12--12p11--
D|-----------------------------------------------------------------------------------------------------
A|-----------------------------------------------------------------------------------------------------
E|-----------------------------------------------------------------------------------------------------

Stave 9:

E|---------------------------------------------------------------------------------------------------
B|------------------------------------------------------------------------------12/13--13p12h13--15--
G|------------------------------------------------------11------12--11--14--12-----------------------
D|--------------------------------------12--11--14--12------14---------------------------------------
A|--12--10p9------9--12--10--12/14--12---------------------------------------------------------------
E|------------10-------------------------------------------------------------------------------------

Stave 10:

E|--12----------12--13p12h13--15--17-----14--13--15--12--13------12--------------13\12--12--12--
B|------13--15-----------------------------------------------15------13--15---------------------
G|---------------------------------------------------------------------------14-----------------
D|----------------------------------------------------------------------------------------------
A|----------------------------------------------------------------------------------------------
E|----------------------------------------------------------------------------------------------

Stave 11:

E|--15--12--13------12----------------------------------------------------------------------
B|--------------15------13--15--12--13--------------12--------------------------------------
G|--------------------------------------14--14--14------12--14--12--14--12--11--12--11------
D|--------------------------------------------------------------------------------------12--
A|------------------------------------------------------------------------------------------
E|------------------------------------------------------------------------------------------

Stave 12:

E|------------------------------------------------------------------------------------
B|------------------------------------------------------------------------------------
G|---------------------------------------------------------------------6--7--9--7--9--
D|-----------------------7--------------------7------------7--9--8--9-----------------
A|--12--12--10--10\9--9-----10p9p7--9--10--9--------9--10-----------------------------
E|------------------------------------------------------------------------------------

Stave 13:

E|----------9--10p9------10--
B|--10--12-----------12------
G|---------------------------
D|---------------------------
A|---------------------------
E|---------------------------

http://www.guitartabcreator.com
Guitar Tab Creator is intended to store guitar tab created through the tool. It currently does not support in-line text editing. Any text you place in here will be lost. If you need to comment on your tab, please use the "Tab Notes" section located below.