Sound will begin in 5 seconds

morning dew solo 1 dec 2 73

01234567891011121314151617181920212223
E
B
G
D
A
E
B
0 1 2 3 4 5 6 7 8 9 10 11 12 13 14 15 16 17 18 19 20 21 22 23
Song Science #1: How Pros Use 6 Chords to Write Hit Songs
(/) Slide Up  (\) Slide Down  (h) Hammer On  (p) Pull Off  (b) Bend (r) Release (v) Vibrato

Stave 1:

E|--8------8--9--10b11--10p9p8--8--9--10----------------13----------13------------------------15b17--
B|-----10------------------------------------13--14h15------13--15------15b17r15--13--13-------------
G|----------------------------------------------------------------------------------------12---------
D|---------------------------------------------------------------------------------------------------
A|---------------------------------------------------------------------------------------------------
E|---------------------------------------------------------------------------------------------------

Stave 2:

E|--17r15--15--14/15--14------------------------------------------17--14/15--14----------17--21r19--17--
B|------------------------15/17--15--17b19--17------19b21r19--19-----------------17--15-----------------
G|----------------------------------------------16------------------------------------------------------
D|------------------------------------------------------------------------------------------------------
A|------------------------------------------------------------------------------------------------------
E|------------------------------------------------------------------------------------------------------

Stave 3:

E|--17--15--18\17--15--14------------------14--15p14-------------------------------------------------
B|-------------------------15------15--17-------------17--15--17/19--17-----13--15p13h15--19r17--15--
G|-----------------------------14--------------------------------------------------------------------
D|---------------------------------------------------------------------------------------------------
A|---------------------------------------------------------------------------------------------------
E|---------------------------------------------------------------------------------------------------

Stave 4:

E|-----------------------------------14--14/15--17--17--19--21r19--17-----21r19--17-------------17--
B|--17p15--17/19--19r17--15--15--17--------------------------------------------------18--18/19------
G|--------------------------------------------------------------------------------------------------
D|--------------------------------------------------------------------------------------------------
A|--------------------------------------------------------------------------------------------------
E|--------------------------------------------------------------------------------------------------

Stave 5:

E|-------------------------------------------------------------------------------------------------
B|--20p19p17--15--17--19r17--15--17b19-------------------------------------------------------------
G|--------------------------------------------------------------------7---------7---------7--9--7--
D|------------------------------------------------7---------7--8--10-----8--10-----8--10-----------
A|-----------------------------------------8--10-----8--10-----------------------------------------
E|-------------------------------------------------------------------------------------------------

Stave 6:

E|------------------------------------------------8--8------8-----------------------------------------
B|----------------8-----8h10p8------8--8--10--11--------11-----11--10--8--11--10--8--10--8---------8--
G|------7--9--10-----9----------10----------------------------------------------------------10--9-----
D|--10------------------------------------------------------------------------------------------------
A|----------------------------------------------------------------------------------------------------
E|----------------------------------------------------------------------------------------------------

Stave 7:

E|-----------------7------7--8p7------7--------12-------------------------------------17---------17--19--
B|------8--10--10-----10----------10-----8/10---------17b19--19r17--19r17--15--17/19------18/19----------
G|--10---------------------------------------------------------------------------------------------------
D|-------------------------------------------------------------------------------------------------------
A|-------------------------------------------------------------------------------------------------------
E|-------------------------------------------------------------------------------------------------------

Stave 8:

E|--17---------17--19b20--19p17---------17---------------------------------------------------
B|------18h19--------------------18h19------19p18p17--15--17--19r17--15------17------15--17--
G|-----------------------------------------------------------------------16------16----------
D|-------------------------------------------------------------------------------------------
A|-------------------------------------------------------------------------------------------
E|-------------------------------------------------------------------------------------------

Stave 9:

E|-------------------------------------------------------14--13---------13v----------
B|--19r17--15h17--15h17p15-------------------13------------------14/15-------13--13--
G|---------------------------------12/13/14------------------------------------------
D|-----------------------------15----------------15--15------------------------------
A|-----------------------------------------------------------------------------------
E|-----------------------------------------------------------------------------------

Stave 10:

E|----------------13-------------------------------------10p8--10-----------------------------
B|--15p13--15b17------17r15--13--13-----10b12r10--10--8------------13--12--10-----------------
G|-----------------------------------------------------------------------------12--11--9------
D|----------------------------------------------------------------------------------------12--
A|--------------------------------------------------------------------------------------------
E|--------------------------------------------------------------------------------------------

Stave 11:

E|------------------------------------------------------------
B|------------------------------------------------------------
G|----------------------------------------11--12--11--11------
D|--10--9--------------------9--10p9--10------------------12--
A|---------12--10--9------------------------------------------
E|--------------------10--------------------------------------

http://www.guitartabcreator.com
Guitar Tab Creator is intended to store guitar tab created through the tool. It currently does not support in-line text editing. Any text you place in here will be lost. If you need to comment on your tab, please use the "Tab Notes" section located below.